999
DXF file: C:\Users\caps\Desktop\ToolMD\MassCreate\TA_Holder_20200918_103343\29020S-32FM.dxf
999
Pro/ENGINEER 2016260 by Parametric Technology Corporation
  0
SECTION
  2
HEADER
  9
$ACADVER
  1
AC1027
  9
$DWGCODEPAGE
  3
ANSI_1252
  9
$EXTMAX
 10
11.0
 20
8.5
 30
0.0
  9
$EXTMIN
 10
0.0
 20
0.0
 30
0.0
  9
$LIMMIN
 10
0.0
 20
0.0
  9
$LIMMAX
 10
11.0
 20
8.5
  9
$VIEWCTR
 10
5.5
 20
4.25
  9
$VIEWSIZE
 40
8.5
  9
$CLAYER
  8
0
  9
$LTSCALE
 40
0.605
  9
$CELTYPE
  6
BYLAYER
  9
$DIMSCALE
 40
1.0
  9
$DIMASZ
 40
0.1875
  9
$DIMEXO
 40
0.0625
  9
$DIMDLI
 40
0.418
  9
$DIMEXE
 40
0.125
  9
$DIMCEN
 40
0.099
  9
$DIMLFAC
 40
1.0
  9
$DIMBLK
  1
_CLOSED
  9
$DIMALT
 70
0
  9
$DIMALTF
 40
25.4
  9
$DIMTXT
 40
0.15625
  9
$DIMTOL
 70
0
  9
$DIMLIM
 70
0
  9
$DIMTFAC
 40
1.0
  9
$DIMGAP
 40
0.09
  9
$DIMDSEP
 70
46
  9
$AUNITS
 70
0
  9
$PDMODE
 70
3
  9
$PDSIZE
 40
0.3125
  9
$HANDSEED
  5
271
  9
$TILEMODE
 70
1
  9
$MEASUREMENT
 70
0
  9
$INSUNITS
 70
1
  0
ENDSEC
  0
SECTION
  2
CLASSES
  0
CLASS
  1
ACDBDICTIONARYWDFLT
  2
AcDbDictionaryWithDefault
  3
AutoCAD 2000
 90
0
 91
1
280
0
281
0
  0
CLASS
  1
ACDBPLACEHOLDER
  2
AcDbPlaceHolder
  3
AutoCAD 2000
 90
0
 91
1
280
0
281
0
  0
CLASS
  1
LAYOUT
  2
AcDbLayout
  3
AutoCAD 2000
 90
0
 91
0
280
0
281
0
  0
ENDSEC
  0
SECTION
  2
TABLES
  0
TABLE
  2
VPORT
  5
8
100
AcDbSymbolTable
 70
2
  0
VPORT
  5
1F4
100
AcDbSymbolTableRecord
100
AcDbViewportTableRecord
  2
*ACTIVE
 70
0
 10
0.0
 20
0.0
 11
1.0
 21
1.0
 12
5.5
 22
4.25
 13
0.0
 23
0.0
 14
1.0
 24
1.0
 15
0.0
 25
0.0
 16
0.0
 26
0.0
 36
1.0
 17
0.0
 27
0.0
 37
0.0
 40
8.5
 41
1.2941176471
 42
50.0
 43
0.0
 44
0.0
 50
0.0
 51
0.0
 71
0
 72
100
 73
1
 74
1
 75
0
 76
0
 77
0
 78
0
  0
ENDTAB
  0
TABLE
  2
LTYPE
  5
5
100
AcDbSymbolTable
 70
6
  0
LTYPE
  5
14
100
AcDbSymbolTableRecord
100
AcDbLinetypeTableRecord
  2
BYBLOCK
 70
0
  3

 72
65
 73
0
 40
0.0
  0
LTYPE
  5
15
100
AcDbSymbolTableRecord
100
AcDbLinetypeTableRecord
  2
BYLAYER
 70
0
  3

 72
65
 73
0
 40
0.0
  0
LTYPE
  5
16
100
AcDbSymbolTableRecord
100
AcDbLinetypeTableRecord
  2
CONTINUOUS
 70
64
  3
Solid line
 72
65
 73
0
 40
0.0
  0
LTYPE
  5
1F5
100
AcDbSymbolTableRecord
100
AcDbLinetypeTableRecord
  2
CENTER
 70
64
  3
____ _ ____ _ ____ _ ____ _ ____ _ ____ _ ____
 72
65
 73
4
 40
0.6
 49
0.375
 74
0
 49
-0.075
 74
0
 49
0.075
 74
0
 49
-0.075
 74
0
  0
LTYPE
  5
1F6
100
AcDbSymbolTableRecord
100
AcDbLinetypeTableRecord
  2
HIDDEN
 70
64
  3
- - - - - - - - - - - - - - - - - - - -
 72
65
 73
2
 40
0.2
 49
0.1
 74
0
 49
-0.1
 74
0
  0
LTYPE
  5
1F7
100
AcDbSymbolTableRecord
100
AcDbLinetypeTableRecord
  2
PHANTOM
 70
64
  3
_____ _ _ _____ _ _ _____ _ _ _____
 72
65
 73
6
 40
0.8
 49
0.45
 74
0
 49
-0.05
 74
0
 49
0.1
 74
0
 49
-0.05
 74
0
 49
0.1
 74
0
 49
-0.05
 74
0
  0
LTYPE
  5
1F8
100
AcDbSymbolTableRecord
100
AcDbLinetypeTableRecord
  2
DOT
 70
64
  3
. . . . . . . . . . . . . . . . . . . .
 72
65
 73
2
 40
0.2
 49
0.1
 74
0
 49
-0.1
 74
0
  0
LTYPE
  5
1F9
100
AcDbSymbolTableRecord
100
AcDbLinetypeTableRecord
  2
DASHED
 70
64
  3
- - - - - - - - - - - - - - - - - - - -
 72
65
 73
2
 40
0.2
 49
0.1
 74
0
 49
-0.1
 74
0
  0
ENDTAB
  0
TABLE
  2
LAYER
  5
2
100
AcDbSymbolTable
 70
36
  0
LAYER
  5
10
100
AcDbSymbolTableRecord
100
AcDbLayerTableRecord
  2
0
 70
0
 62
7
  6
CONTINUOUS
370
-3
390
F
  0
LAYER
  5
1FA
100
AcDbSymbolTableRecord
100
AcDbLayerTableRecord
  2
DEFAULT_1
 70
0
 62
7
  6
CENTER
370
-3
390
F
  0
LAYER
  5
1FB
100
AcDbSymbolTableRecord
100
AcDbLayerTableRecord
  2
DEFAULT_2
 70
0
 62
8
  6
HIDDEN
370
-3
390
F
  0
LAYER
  5
1FC
100
AcDbSymbolTableRecord
100
AcDbLayerTableRecord
  2
DEFAULT_3
 70
0
 62
7
  6
PHANTOM
370
-3
390
F
  0
LAYER
  5
1FD
100
AcDbSymbolTableRecord
100
AcDbLayerTableRecord
  2
01_ALL_DTM_PLN
 70
0
 62
7
  6
CONTINUOUS
370
-3
390
F
  0
LAYER
  5
1FE
100
AcDbSymbolTableRecord
100
AcDbLayerTableRecord
  2
01__ASM_ALL_DTM_PLN
 70
0
 62
7
  6
CONTINUOUS
370
-3
390
F
  0
LAYER
  5
1FF
100
AcDbSymbolTableRecord
100
AcDbLayerTableRecord
  2
01__ASM_DEF_DTM_PLN
 70
0
 62
7
  6
CONTINUOUS
370
-3
390
F
  0
LAYER
  5
200
100
AcDbSymbolTableRecord
100
AcDbLayerTableRecord
  2
01___PRT_ALL_DTM_PLN
 70
0
 62
7
  6
CONTINUOUS
370
-3
390
F
  0
LAYER
  5
201
100
AcDbSymbolTableRecord
100
AcDbLayerTableRecord
  2
01___PRT_DEF_DTM_PLN
 70
0
 62
7
  6
CONTINUOUS
370
-3
390
F
  0
LAYER
  5
202
100
AcDbSymbolTableRecord
100
AcDbLayerTableRecord
  2
02_ALL_AXES
 70
0
 62
7
  6
CONTINUOUS
370
-3
390
F
  0
LAYER
  5
203
100
AcDbSymbolTableRecord
100
AcDbLayerTableRecord
  2
02__ASM_ALL_AXES
 70
0
 62
7
  6
CONTINUOUS
370
-3
390
F
  0
LAYER
  5
204
100
AcDbSymbolTableRecord
100
AcDbLayerTableRecord
  2
02___PRT_ALL_AXES
 70
0
 62
7
  6
CONTINUOUS
370
-3
390
F
  0
LAYER
  5
205
100
AcDbSymbolTableRecord
100
AcDbLayerTableRecord
  2
03_ALL_CURVES
 70
0
 62
7
  6
CONTINUOUS
370
-3
390
F
  0
LAYER
  5
206
100
AcDbSymbolTableRecord
100
AcDbLayerTableRecord
  2
03__ASM_ALL_CURVES
 70
0
 62
7
  6
CONTINUOUS
370
-3
390
F
  0
LAYER
  5
207
100
AcDbSymbolTableRecord
100
AcDbLayerTableRecord
  2
03___PRT_ALL_CURVES
 70
0
 62
7
  6
CONTINUOUS
370
-3
390
F
  0
LAYER
  5
208
100
AcDbSymbolTableRecord
100
AcDbLayerTableRecord
  2
04_ALL_DTM_PNT
 70
0
 62
7
  6
CONTINUOUS
370
-3
390
F
  0
LAYER
  5
209
100
AcDbSymbolTableRecord
100
AcDbLayerTableRecord
  2
04__ASM_ALL_DTM_PNT
 70
0
 62
7
  6
CONTINUOUS
370
-3
390
F
  0
LAYER
  5
20A
100
AcDbSymbolTableRecord
100
AcDbLayerTableRecord
  2
04___PRT_ALL_DTM_PNT
 70
0
 62
7
  6
CONTINUOUS
370
-3
390
F
  0
LAYER
  5
20B
100
AcDbSymbolTableRecord
100
AcDbLayerTableRecord
  2
05_ALL_DTM_CSYS
 70
0
 62
7
  6
CONTINUOUS
370
-3
390
F
  0
LAYER
  5
20C
100
AcDbSymbolTableRecord
100
AcDbLayerTableRecord
  2
05__ASM_ALL_DTM_CSYS
 70
0
 62
7
  6
CONTINUOUS
370
-3
390
F
  0
LAYER
  5
20D
100
AcDbSymbolTableRecord
100
AcDbLayerTableRecord
  2
05__ASM_DEF_DTM_CSYS
 70
0
 62
7
  6
CONTINUOUS
370
-3
390
F
  0
LAYER
  5
20E
100
AcDbSymbolTableRecord
100
AcDbLayerTableRecord
  2
05___PRT_ALL_DTM_CSYS
 70
0
 62
7
  6
CONTINUOUS
370
-3
390
F
  0
LAYER
  5
20F
100
AcDbSymbolTableRecord
100
AcDbLayerTableRecord
  2
05___PRT_DEF_DTM_CSYS
 70
0
 62
7
  6
CONTINUOUS
370
-3
390
F
  0
LAYER
  5
210
100
AcDbSymbolTableRecord
100
AcDbLayerTableRecord
  2
06_ALL_SURFS
 70
0
 62
7
  6
CONTINUOUS
370
-3
390
F
  0
LAYER
  5
211
100
AcDbSymbolTableRecord
100
AcDbLayerTableRecord
  2
06__ASM_ALL_SURFS
 70
0
 62
7
  6
CONTINUOUS
370
-3
390
F
  0
LAYER
  5
212
100
AcDbSymbolTableRecord
100
AcDbLayerTableRecord
  2
06___PRT_ALL_SURFS
 70
0
 62
7
  6
CONTINUOUS
370
-3
390
F
  0
LAYER
  5
213
100
AcDbSymbolTableRecord
100
AcDbLayerTableRecord
  2
07__ASM_ALL_SKELETONS
 70
0
 62
7
  6
CONTINUOUS
370
-3
390
F
  0
LAYER
  5
214
100
AcDbSymbolTableRecord
100
AcDbLayerTableRecord
  2
HELICAL_FLUTE_CURVES
 70
0
 62
7
  6
CONTINUOUS
370
-3
390
F
  0
LAYER
  5
215
100
AcDbSymbolTableRecord
100
AcDbLayerTableRecord
  2
HOLDER_LEADER
 70
0
 62
7
  6
CONTINUOUS
370
-3
390
F
  0
LAYER
  5
216
100
AcDbSymbolTableRecord
100
AcDbLayerTableRecord
  2
NOCUT
 70
0
 62
7
  6
CONTINUOUS
370
-3
390
F
  0
LAYER
  5
217
100
AcDbSymbolTableRecord
100
AcDbLayerTableRecord
  2
NON_MACHINING_CLOUD_CSYS
 70
0
 62
7
  6
CONTINUOUS
370
-3
390
F
  0
LAYER
  5
218
100
AcDbSymbolTableRecord
100
AcDbLayerTableRecord
  2
SHANK_CURVES
 70
0
 62
7
  6
CONTINUOUS
370
-3
390
F
  0
ENDTAB
  0
TABLE
  2
STYLE
  5
3
100
AcDbSymbolTable
 70
1
  0
STYLE
  5
11
100
AcDbSymbolTableRecord
100
AcDbTextStyleTableRecord
  2
STANDARD
 70
0
 40
0.0
 41
0.8
 50
0.0
 71
0
 42
0.2
  3
txt
  4

  0
STYLE
  5
219
100
AcDbSymbolTableRecord
100
AcDbTextStyleTableRecord
  2
TEXTSTYLE_1
 70
0
 40
0.0
 41
0.8
 50
0.0
 71
0
 42
0.2
  3
gdt
  4

  0
ENDTAB
  0
TABLE
  2
VIEW
  5
6
100
AcDbSymbolTable
 70
0
  0
ENDTAB
  0
TABLE
  2
UCS
  5
7
100
AcDbSymbolTable
 70
0
  0
ENDTAB
  0
TABLE
  2
APPID
  5
9
100
AcDbSymbolTable
 70
1
  0
APPID
  5
21A
100
AcDbSymbolTableRecord
100
AcDbRegAppTableRecord
  2
ACAD
 70
0
  0
ENDTAB
  0
TABLE
  2
BLOCK_RECORD
  5
1
100
AcDbSymbolTable
 70
0
  0
BLOCK_RECORD
  5
21B
100
AcDbSymbolTableRecord
100
AcDbBlockTableRecord
  2
*Model_Space
  0
BLOCK_RECORD
  5
21C
100
AcDbSymbolTableRecord
100
AcDbBlockTableRecord
  2
*Paper_Space
  0
ENDTAB
  0
TABLE
  2
DIMSTYLE
  5
A
100
AcDbSymbolTable
 70
1
100
AcDbDimStyleTable
 71
0
  0
DIMSTYLE
105
21D
100
AcDbSymbolTableRecord
100
AcDbDimStyleTableRecord
  2
STANDARD
 70
0
  3

  4

 40
1.0
 41
0.1875
 42
0.0625
 43
0.38
 44
0.125
 45
0.0
 46
0.0
 47
0.0001
 48
0.0001
140
0.15625
141
0.09
142
0.0
143
25.4
144
1.0
145
0.0
146
1.0
147
0.09
 71
0.0
 72
0.0
 73
1
 74
1
 75
0
 76
0
 77
0
 78
4
170
0
171
3
172
0
173
0
174
0
175
0
176
0
177
0
178
0
270
2
271
4
272
4
273
2
274
2
275
0
280
0
281
0
282
0
283
1
284
4
285
0
286
0
287
3
288
0
340
11
278
46
  0
ENDTAB
  0
ENDSEC
  0
SECTION
  2
BLOCKS
  0
BLOCK
  5
20
100
AcDbEntity
  8
0
100
AcDbBlockBegin
  2
*Model_Space
 70
0
 10
0.0
 20
0.0
 30
0.0
  3
*Model_Space
  1

  0
ENDBLK
  5
21
100
AcDbEntity
  8
0
100
AcDbBlockEnd
  0
BLOCK
  5
1C
100
AcDbEntity
  8
0
100
AcDbBlockBegin
  2
*Paper_Space
 70
0
 10
0.0
 20
0.0
 30
0.0
  3
*Paper_Space
  1

  0
ENDBLK
  5
1D
100
AcDbEntity
  8
0
100
AcDbBlockEnd
  0
ENDSEC
  0
SECTION
  2
ENTITIES
  0
MTEXT
  5
21E
100
AcDbEntity
  8
0
100
AcDbMText
 62
5
  6
CONTINUOUS
  7
STANDARD
 71
3
 72
1
 10
10.9218751216
 20
0.2343749474
 30
0.0
 11
1.0
 21
0.0
 31
0.0
 44
0.9
  1
SCALE 0.285
 40
0.15625
 41
1.375
  0
MTEXT
  5
21F
100
AcDbEntity
  8
0
100
AcDbMText
 62
5
  6
CONTINUOUS
  7
STANDARD
 71
1
 72
1
 10
0.0925915769
 20
0.2230497798
 30
0.0
 11
1.0
 21
0.0
 31
0.0
 44
0.9
  1
* DIMENSIONS CANNOT BE CONFIGURED UNTIL ASSEMBLY IS COMPLETE 
 40
0.125
 41
6.1
  0
LINE
  5
220
100
AcDbEntity
  8
0
100
AcDbLine
 62
7
  6
CONTINUOUS
 10
0.0
 20
0.0
 11
0.0
 21
8.5
  0
LINE
  5
221
100
AcDbEntity
  8
0
100
AcDbLine
 62
7
  6
CONTINUOUS
 10
0.0
 20
0.0
 11
11.0
 21
0.0
  0
LINE
  5
222
100
AcDbEntity
  8
0
100
AcDbLine
 62
7
  6
CONTINUOUS
 10
0.0
 20
8.5
 11
11.0
 21
8.5
  0
LINE
  5
223
100
AcDbEntity
  8
0
100
AcDbLine
 62
7
  6
CONTINUOUS
 10
11.0
 20
0.0
 11
11.0
 21
8.5
  0
LINE
  5
224
100
AcDbEntity
  8
0
100
AcDbLine
 62
7
  6
CONTINUOUS
 10
0.55
 20
4.0773991609
 11
0.55
 21
4.4226008407
  0
LINE
  5
225
100
AcDbEntity
  8
0
100
AcDbLine
 62
7
  6
CONTINUOUS
 10
0.6033801821
 20
4.4297864043
 11
0.6033801821
 21
4.3369434371
  0
LINE
  5
226
100
AcDbEntity
  8
0
100
AcDbLine
 62
7
  6
CONTINUOUS
 10
0.6033801821
 20
4.1630565629
 11
0.6033801821
 21
4.0702135957
  0
LINE
  5
227
100
AcDbEntity
  8
DEFAULT_2
100
AcDbLine
 62
8
  6
HIDDEN
 10
0.6033801821
 20
4.1630565629
 11
0.6033801821
 21
4.3369434371
  0
LINE
  5
228
100
AcDbEntity
  8
0
100
AcDbLine
 62
7
  6
CONTINUOUS
 10
1.1551881775
 20
4.3369434371
 11
1.1551881775
 21
4.1630565629
  0
LINE
  5
229
100
AcDbEntity
  8
0
100
AcDbLine
 62
7
  6
CONTINUOUS
 10
1.224304376
 20
4.0465497265
 11
1.224304376
 21
4.4534502735
  0
LINE
  5
22A
100
AcDbEntity
  8
0
100
AcDbLine
 62
7
  6
CONTINUOUS
 10
1.2287646185
 20
4.0420894841
 11
1.2287646185
 21
4.4579105159
  0
LINE
  5
22B
100
AcDbEntity
  8
0
100
AcDbLine
 62
7
  6
CONTINUOUS
 10
1.224304376
 20
4.4534502735
 11
1.2287646185
 21
4.4579105159
  0
LINE
  5
22C
100
AcDbEntity
  8
0
100
AcDbLine
 62
7
  6
CONTINUOUS
 10
1.224304376
 20
4.0465497265
 11
1.2287646185
 21
4.0420894841
  0
LINE
  5
22D
100
AcDbEntity
  8
0
100
AcDbLine
 62
7
  6
CONTINUOUS
 10
1.3489648695
 20
4.1038149024
 11
1.2898522007
 21
4.0447022336
  0
LINE
  5
22E
100
AcDbEntity
  8
0
100
AcDbLine
 62
7
  6
CONTINUOUS
 10
0.55
 20
4.4226008516
 11
0.5582068462
 21
4.4273390764
  0
LINE
  5
22F
100
AcDbEntity
  8
0
100
AcDbLine
 62
7
  6
CONTINUOUS
 10
0.55
 20
4.0773991484
 11
0.5582068462
 21
4.0726609236
  0
LINE
  5
230
100
AcDbEntity
  8
0
100
AcDbLine
 62
7
  6
CONTINUOUS
 10
1.3489648695
 20
4.3961850976
 11
1.2898522007
 21
4.4552977664
  0
LINE
  5
231
100
AcDbEntity
  8
0
100
AcDbLine
 62
7
  6
CONTINUOUS
 10
0.5810097305
 20
4.0733575577
 11
0.6033801821
 21
4.0702135957
  0
LINE
  5
232
100
AcDbEntity
  8
0
100
AcDbLine
 62
7
  6
CONTINUOUS
 10
1.2835444653
 20
4.0420894841
 11
1.2287646185
 21
4.0420894841
  0
LINE
  5
233
100
AcDbEntity
  8
0
100
AcDbLine
 62
7
  6
CONTINUOUS
 10
1.224304376
 20
4.0702135957
 11
0.6033801821
 21
4.0702135957
  0
LINE
  5
234
100
AcDbEntity
  8
0
100
AcDbLine
 62
7
  6
CONTINUOUS
 10
9.3420884308
 20
4.1142659006
 11
1.3741958111
 21
4.1142659006
  0
LINE
  5
235
100
AcDbEntity
  8
02___PRT_ALL_AXES
100
AcDbLine
 62
8
  6
HIDDEN
 10
1.7015860041
 20
4.1155434078
 11
9.3420884308
 21
4.1155434078
  0
LINE
  5
236
100
AcDbEntity
  8
0
100
AcDbLine
 62
7
  6
CONTINUOUS
 10
9.3420884308
 20
4.1169302053
 11
9.4356629783
 21
4.1169302053
  0
LINE
  5
237
100
AcDbEntity
  8
0
100
AcDbLine
 62
7
  6
CONTINUOUS
 10
0.6033801821
 20
4.1630565629
 11
1.1551881775
 21
4.1630565629
  0
LINE
  5
238
100
AcDbEntity
  8
DEFAULT_2
100
AcDbLine
 62
8
  6
HIDDEN
 10
9.4703020587
 20
4.1986180065
 11
9.3420884308
 21
4.1986180065
  0
LINE
  5
239
100
AcDbEntity
  8
02___PRT_ALL_AXES
100
AcDbLine
 62
7
  6
CONTINUOUS
 10
1.7015860041
 20
4.2397429871
 11
9.4356629783
 21
4.2397429871
  0
LINE
  5
23A
100
AcDbEntity
  8
02___PRT_ALL_AXES
100
AcDbLine
 62
8
  6
HIDDEN
 10
1.7015860041
 20
4.2602570129
 11
9.4356629783
 21
4.2602570129
  0
LINE
  5
23B
100
AcDbEntity
  8
02___PRT_ALL_AXES
100
AcDbLine
 62
7
  6
CONTINUOUS
 10
9.3420884308
 20
4.3013819935
 11
9.4703020587
 21
4.3013819935
  0
LINE
  5
23C
100
AcDbEntity
  8
0
100
AcDbLine
 62
7
  6
CONTINUOUS
 10
0.6033801821
 20
4.3369434371
 11
1.1551881775
 21
4.3369434371
  0
LINE
  5
23D
100
AcDbEntity
  8
0
100
AcDbLine
 62
7
  6
CONTINUOUS
 10
9.3420884308
 20
4.3830697947
 11
9.4356629783
 21
4.3830697947
  0
LINE
  5
23E
100
AcDbEntity
  8
02___PRT_ALL_AXES
100
AcDbLine
 62
7
  6
CONTINUOUS
 10
1.7015860041
 20
4.3844565922
 11
9.3420884308
 21
4.3844565922
  0
LINE
  5
23F
100
AcDbEntity
  8
0
100
AcDbLine
 62
7
  6
CONTINUOUS
 10
9.3420884308
 20
4.3857340994
 11
1.3741958111
 21
4.3857340994
  0
LINE
  5
240
100
AcDbEntity
  8
0
100
AcDbLine
 62
7
  6
CONTINUOUS
 10
1.224304376
 20
4.4297864043
 11
0.6033801821
 21
4.4297864043
  0
LINE
  5
241
100
AcDbEntity
  8
0
100
AcDbLine
 62
7
  6
CONTINUOUS
 10
1.2835444653
 20
4.4579105159
 11
1.2287646185
 21
4.4579105159
  0
LINE
  5
242
100
AcDbEntity
  8
0
100
AcDbLine
 62
7
  6
CONTINUOUS
 10
0.5810097305
 20
4.4266424423
 11
0.6033801821
 21
4.4297864043
  0
LINE
  5
243
100
AcDbEntity
  8
0
100
AcDbLine
 62
7
  6
CONTINUOUS
 10
9.3420884308
 20
4.1169302053
 11
9.3420884308
 21
4.1142659006
  0
LINE
  5
244
100
AcDbEntity
  8
DEFAULT_2
100
AcDbLine
 62
8
  6
HIDDEN
 10
9.3420884308
 20
4.1169302053
 11
9.3420884308
 21
4.3013819935
  0
LINE
  5
245
100
AcDbEntity
  8
02___PRT_ALL_AXES
100
AcDbLine
 62
7
  6
CONTINUOUS
 10
9.3420884308
 20
4.3013819935
 11
9.3420884308
 21
4.3857340994
  0
LINE
  5
246
100
AcDbEntity
  8
02___PRT_ALL_AXES
100
AcDbLine
 62
8
  6
HIDDEN
 10
9.4356629783
 20
4.3830697947
 11
9.4356629783
 21
4.2602570129
  0
LINE
  5
247
100
AcDbEntity
  8
02___PRT_ALL_AXES
100
AcDbLine
 62
7
  6
CONTINUOUS
 10
9.4356629783
 20
4.2397429871
 11
9.4356629783
 21
4.1169302053
  0
LINE
  5
248
100
AcDbEntity
  8
02___PRT_ALL_AXES
100
AcDbLine
 62
7
  6
CONTINUOUS
 10
10.268850939
 20
4.1986180065
 11
10.287281611
 21
4.1986180065
  0
LINE
  5
249
100
AcDbEntity
  8
0
100
AcDbLine
 62
7
  6
CONTINUOUS
 10
10.2153280291
 20
4.3013819935
 11
10.2153280291
 21
4.1169302053
  0
LINE
  5
24A
100
AcDbEntity
  8
0
100
AcDbLine
 62
7
  6
CONTINUOUS
 10
10.268850939
 20
4.1986180065
 11
10.268850939
 21
4.3830697947
  0
LINE
  5
24B
100
AcDbEntity
  8
02___PRT_ALL_AXES
100
AcDbLine
 62
7
  6
CONTINUOUS
 10
10.2153280291
 20
4.3013819935
 11
10.1968973571
 21
4.3013819935
  0
ARC
  5
24C
100
AcDbEntity
  8
0
100
AcDbCircle
 62
7
  6
CONTINUOUS
 10
0.9814459413
 20
3.0344719684
 40
1.3562321502
100
AcDbArc
 50
106.1863208891
 51
107.1729123622
  0
ARC
  5
24D
100
AcDbEntity
  8
0
100
AcDbCircle
 62
7
  6
CONTINUOUS
 10
0.9814459413
 20
5.4655280316
 40
1.3562321502
100
AcDbArc
 50
252.8270876378
 51
253.8136791109
  0
ARC
  5
24E
100
AcDbEntity
  8
DEFAULT_2
100
AcDbCircle
 62
8
  6
HIDDEN
 10
8.8048093679
 20
4.4614402725
 40
0.7155110517
100
AcDbArc
 50
338.4495063417
 51
338.6621125576
  0
ARC
  5
24F
100
AcDbEntity
  8
DEFAULT_2
100
AcDbCircle
 62
8
  6
HIDDEN
 10
8.8104249719
 20
4.0407739884
 40
0.7094746968
100
AcDbArc
 50
21.3363416487
 51
21.5507582951
  0
ARC
  5
250
100
AcDbEntity
  8
0
100
AcDbCircle
 62
7
  6
CONTINUOUS
 10
0.7499091532
 20
4.1783768792
 40
0.2455137883
100
AcDbArc
 50
141.3358015215
 51
144.5130905191
  0
ARC
  5
251
100
AcDbEntity
  8
0
100
AcDbCircle
 62
7
  6
CONTINUOUS
 10
0.7499091532
 20
4.3216231208
 40
0.2455137883
100
AcDbArc
 50
215.4869094809
 51
218.6641984785
  0
ARC
  5
252
100
AcDbEntity
  8
0
100
AcDbCircle
 62
7
  6
CONTINUOUS
 10
1.3741958111
 20
4.0785839607
 40
0.0356819399
100
AcDbArc
 50
90.0
 51
135.0
  0
ARC
  5
253
100
AcDbEntity
  8
0
100
AcDbCircle
 62
7
  6
CONTINUOUS
 10
1.3741958111
 20
4.4214160393
 40
0.0356819399
100
AcDbArc
 50
225.0
 51
270.0
  0
CIRCLE
  5
254
100
AcDbEntity
  8
02___PRT_ALL_AXES
100
AcDbCircle
 62
7
  6
CONTINUOUS
 10
9.3988997882
 20
4.164172089
 40
0.0224768125
  0
CIRCLE
  5
255
100
AcDbEntity
  8
02___PRT_ALL_AXES
100
AcDbCircle
 62
7
  6
CONTINUOUS
 10
9.3988997882
 20
4.335827911
 40
0.0224768125
  0
ARC
  5
256
100
AcDbEntity
  8
0
100
AcDbCircle
 62
7
  6
CONTINUOUS
 10
0.5671273312
 20
4.4118883432
 40
0.0178409699
100
AcDbArc
 50
61.8127245369
 51
120.0
  0
ARC
  5
257
100
AcDbEntity
  8
0
100
AcDbCircle
 62
7
  6
CONTINUOUS
 10
0.5671273312
 20
4.0881116568
 40
0.0178409699
100
AcDbArc
 50
240.0
 51
298.1872754631
  0
ARC
  5
258
100
AcDbEntity
  8
0
100
AcDbCircle
 62
7
  6
CONTINUOUS
 10
0.579768239
 20
4.4354761138
 40
0.008920485
100
AcDbArc
 50
241.8127245369
 51
278.0
  0
ARC
  5
259
100
AcDbEntity
  8
0
100
AcDbCircle
 62
7
  6
CONTINUOUS
 10
0.579768239
 20
4.0645238862
 40
0.008920485
100
AcDbArc
 50
82.0
 51
118.1872754631
  0
ARC
  5
25A
100
AcDbEntity
  8
0
100
AcDbCircle
 62
7
  6
CONTINUOUS
 10
1.2835444653
 20
4.051009969
 40
0.008920485
100
AcDbArc
 50
270.0
 51
315.0
  0
ARC
  5
25B
100
AcDbEntity
  8
0
100
AcDbCircle
 62
7
  6
CONTINUOUS
 10
1.2835444653
 20
4.448990031
 40
0.008920485
100
AcDbArc
 50
45.0
 51
90.0
  0
CIRCLE
  5
25C
100
AcDbEntity
  8
0
100
AcDbCircle
 62
7
  6
CONTINUOUS
 10
10.2420894841
 20
4.25
 40
0.2079105159
  0
ARC
  5
25D
100
AcDbEntity
  8
02___PRT_ALL_AXES
100
AcDbCircle
 62
7
  6
CONTINUOUS
 10
10.4120782457
 20
4.112838623
 40
0.1514341529
100
AcDbArc
 50
103.2243453595
 51
178.9765783401
  0
ARC
  5
25E
100
AcDbEntity
  8
02___PRT_ALL_AXES
100
AcDbCircle
 62
7
  6
CONTINUOUS
 10
10.0721007224
 20
4.387161377
 40
0.1514341529
100
AcDbArc
 50
283.2243453595
 51
358.9765783401
  0
ARC
  5
25F
100
AcDbEntity
  8
0
100
AcDbCircle
 62
7
  6
CONTINUOUS
 10
10.2420894841
 20
4.25
 40
0.1357340994
100
AcDbArc
 50
258.629015895
 51
270.0
  0
ARC
  5
260
100
AcDbEntity
  8
0
100
AcDbCircle
 62
7
  6
CONTINUOUS
 10
10.2420894841
 20
4.25
 40
0.1357340994
100
AcDbArc
 50
78.629015895
 51
90.0
  0
ARC
  5
261
100
AcDbEntity
  8
02___PRT_ALL_AXES
100
AcDbCircle
 62
7
  6
CONTINUOUS
 10
10.2420894841
 20
4.25
 40
0.1357340994
100
AcDbArc
 50
270.0
 51
78.629015895
  0
ARC
  5
262
100
AcDbEntity
  8
02___PRT_ALL_AXES
100
AcDbCircle
 62
7
  6
CONTINUOUS
 10
10.2420894841
 20
4.25
 40
0.1357340994
100
AcDbArc
 50
90.0
 51
258.629015895
  0
SPLINE
  5
263
100
AcDbEntity
  8
02___PRT_ALL_AXES
100
AcDbSpline
 62
8
  6
HIDDEN
 70
0
 71
3
 72
22
 73
18
 74
0
 42
0.0000001
 43
0.0000001
 44
0.0000000001
 40
0.0
 40
0.0
 40
0.0
 40
0.0
 40
0.0945280197
 40
0.1446139191
 40
0.1967070901
 40
0.250886916
 40
0.3072052321
 40
0.365695078
 40
0.4263844017
 40
0.4892955277
 40
0.5544718227
 40
0.6219878201
 40
0.6919649305
 40
0.7645801785
 40
0.8400336583
 40
0.918490957
 40
1.0
 40
1.0
 40
1.0
 40
1.0
 10
9.4356629783
 20
4.2602570129
 30
0.0
 10
9.4376983781
 20
4.2591984789
 30
0.0
 10
9.4406821905
 20
4.2573172545
 30
0.0
 10
9.4444330528
 20
4.2543605679
 30
0.0
 10
9.4472490882
 20
4.2518120187
 30
0.0
 10
9.4499970159
 20
4.2489762898
 30
0.0
 10
9.4526583517
 20
4.2458519438
 30
0.0
 10
9.4552084756
 20
4.2424367104
 30
0.0
 10
9.4576176821
 20
4.2387279078
 30
0.0
 10
9.4598464343
 20
4.2347205852
 30
0.0
 10
9.4618474954
 20
4.2304106277
 30
0.0
 10
9.4635618754
 20
4.2257943219
 30
0.0
 10
9.4649224862
 20
4.2208728464
 30
0.0
 10
9.4658601672
 20
4.2156566852
 30
0.0
 10
9.4663162506
 20
4.2101694934
 30
0.0
 10
9.46625879
 20
4.2044486739
 30
0.0
 10
9.4658887103
 20
4.2005791693
 30
0.0
 10
9.4656294334
 20
4.1986180065
 30
0.0
  0
SPLINE
  5
264
100
AcDbEntity
  8
02___PRT_ALL_AXES
100
AcDbSpline
 62
8
  6
HIDDEN
 70
0
 71
3
 72
65
 73
61
 74
0
 42
0.0000001
 43
0.0000001
 44
0.0000000001
 40
0.0
 40
0.0
 40
0.0
 40
0.0
 40
0.0656901789
 40
0.1313790447
 40
0.1642307784
 40
0.1970822381
 40
0.2299306471
 40
0.2627681567
 40
0.2955772904
 40
0.3283231432
 40
0.3609408077
 40
0.377169559
 40
0.3933154156
 40
0.409347287
 40
0.4252220202
 40
0.4408780379
 40
0.4562268399
 40
0.4637489348
 40
0.4711420203
 40
0.478381005
 40
0.4854351908
 40
0.4922699588
 40
0.4988464054
 40
0.505125492
 40
0.5110763356
 40
0.5166903055
 40
0.5193818221
 40
0.5220063021
 40
0.5245770361
 40
0.5271108543
 40
0.5296270591
 40
0.5321460877
 40
0.5346876514
 40
0.5372694936
 40
0.5426033258
 40
0.5482265542
 40
0.554160931
 40
0.5603953204
 40
0.5669023724
 40
0.5736491594
 40
0.5806027366
 40
0.5877340234
 40
0.5950165703
 40
0.6024286626
 40
0.6099513286
 40
0.6252675096
 40
0.6408665689
 40
0.6566769462
 40
0.6726460672
 40
0.6887348911
 40
0.7049144802
 40
0.7374603126
 40
0.7701603357
 40
0.8029421351
 40
0.835764306
 40
0.8686044194
 40
0.901451424
 40
0.9343005891
 40
0.9671502569
 40
1.0
 40
1.0
 40
1.0
 40
1.0
 10
1.7015860041
 20
4.2602570129
 30
0.0
 10
1.6881555836
 20
4.2602570129
 30
0.0
 10
1.6612834706
 20
4.2591847104
 30
0.0
 10
1.6279108306
 20
4.2551477704
 30
0.0
 10
1.601485866
 20
4.2502780667
 30
0.0
 10
1.5818354138
 20
4.2457954777
 30
0.0
 10
1.5623985876
 20
4.2404730306
 30
0.0
 10
1.54322402
 20
4.2342985259
 30
0.0
 10
1.5243720276
 20
4.2272576208
 30
0.0
 10
1.5059225493
 20
4.219332929
 30
0.0
 10
1.4909479026
 20
4.2119612409
 30
0.0
 10
1.4792893383
 20
4.2055825999
 30
0.0
 10
1.4707568261
 20
4.2005649384
 30
0.0
 10
1.4624594352
 20
4.1953007767
 30
0.0
 10
1.4544477957
 20
4.1897848129
 30
0.0
 10
1.4467921363
 20
4.1840127815
 30
0.0
 10
1.4407483089
 20
4.1789538624
 30
0.0
 10
1.4361976512
 20
4.1747598262
 30
0.0
 10
1.4329791514
 20
4.1715711888
 30
0.0
 10
1.4299605491
 20
4.1683216554
 30
0.0
 10
1.4271767919
 20
4.1650160267
 30
0.0
 10
1.4246696366
 20
4.161662672
 30
0.0
 10
1.422489337
 20
4.1582737553
 30
0.0
 10
1.4206943952
 20
4.1548665422
 30
0.0
 10
1.4193506393
 20
4.1514658088
 30
0.0
 10
1.4186563864
 20
4.1486216743
 30
0.0
 10
1.4184095978
 20
4.1463979499
 30
0.0
 10
1.4183815765
 20
4.1447831853
 30
0.0
 10
1.4185124321
 20
4.1432055935
 30
0.0
 10
1.4188053406
 20
4.1416722243
 30
0.0
 10
1.4192600661
 20
4.1401898071
 30
0.0
 10
1.4198742483
 20
4.1387644011
 30
0.0
 10
1.4206428379
 20
4.1374007129
 30
0.0
 10
1.421876617
 20
4.1356508186
 30
0.0
 10
1.4237869129
 20
4.1336266148
 30
0.0
 10
1.4265222755
 20
4.1315020004
 30
0.0
 10
1.4296495802
 20
4.1296303202
 30
0.0
 10
1.4331006862
 20
4.1279863652
 30
0.0
 10
1.4368177793
 20
4.1265436296
 30
0.0
 10
1.4407524262
 20
4.125277617
 30
0.0
 10
1.4448649911
 20
4.1241653507
 30
0.0
 10
1.4491236194
 20
4.123187471
 30
0.0
 10
1.4535025993
 20
4.1223258935
 30
0.0
 10
1.4579813535
 20
4.121565855
 30
0.0
 10
1.464100608
 20
4.1206649092
 30
0.0
 10
1.4719057356
 20
4.1197363625
 30
0.0
 10
1.4814194456
 20
4.1188616011
 30
0.0
 10
1.4910816913
 20
4.1181681471
 30
0.0
 10
1.5008531254
 20
4.1176163344
 30
0.0
 10
1.5107056702
 20
4.1171758085
 30
0.0
 10
1.5239488241
 20
4.1167062879
 30
0.0
 10
1.5405916875
 20
4.1162951792
 30
0.0
 10
1.5606312189
 20
4.1159814415
 30
0.0
 10
1.580728691
 20
4.1157854157
 30
0.0
 10
1.6008553614
 20
4.1156672204
 30
0.0
 10
1.6209955829
 20
4.1156001415
 30
0.0
 10
1.6411413961
 20
4.1155654787
 30
0.0
 10
1.6612891833
 20
4.1155499104
 30
0.0
 10
1.6814375343
 20
4.1155442352
 30
0.0
 10
1.6948698424
 20
4.1155434078
 30
0.0
 10
1.7015860041
 20
4.1155434078
 30
0.0
  0
SPLINE
  5
265
100
AcDbEntity
  8
DEFAULT_2
100
AcDbSpline
 62
8
  6
HIDDEN
 70
0
 71
3
 72
25
 73
21
 74
0
 42
0.0000001
 43
0.0000001
 44
0.0000000001
 40
0.0
 40
0.0
 40
0.0
 40
0.0
 40
0.0625032649
 40
0.1250063787
 40
0.1875092791
 40
0.2500113965
 40
0.3125115042
 40
0.37500741
 40
0.4374965694
 40
0.4687482897
 40
0.5000000238
 40
0.5312517446
 40
0.5625034375
 40
0.6249925525
 40
0.687488461
 40
0.7499886403
 40
0.8124907199
 40
0.874993616
 40
0.9374967735
 40
1.0
 40
1.0
 40
1.0
 40
1.0
 10
9.4712727238
 20
4.2010892397
 30
0.0
 10
9.4720438012
 20
4.2030633414
 30
0.0
 10
9.4735674151
 20
4.2070188321
 30
0.0
 10
9.4757776224
 20
4.2129805688
 30
0.0
 10
9.4778831866
 20
4.2189802624
 30
0.0
 10
9.4798395
 20
4.2250306211
 30
0.0
 10
9.48157811
 20
4.2311479775
 30
0.0
 10
9.4829965122
 20
4.2373487975
 30
0.0
 10
9.4837927379
 20
4.2425937073
 30
0.0
 10
9.4841243831
 20
4.246820591
 30
0.0
 10
9.484208889
 20
4.2500000017
 30
0.0
 10
9.4841243749
 20
4.2531794112
 30
0.0
 10
9.4837927281
 20
4.2574062918
 30
0.0
 10
9.4829965075
 20
4.2626511992
 30
0.0
 10
9.4815781313
 20
4.2688520273
 30
0.0
 10
9.4798394686
 20
4.2749693699
 30
0.0
 10
9.4778832002
 20
4.2810197436
 30
0.0
 10
9.4757776388
 20
4.2870194384
 30
0.0
 10
9.4735674581
 20
4.2929811856
 30
0.0
 10
9.4720437596
 20
4.2969366435
 30
0.0
 10
9.4712727246
 20
4.2989107604
 30
0.0
  0
SPLINE
  5
266
100
AcDbEntity
  8
0
100
AcDbSpline
 62
7
  6
CONTINUOUS
 70
0
 71
3
 72
33
 73
29
 74
0
 42
0.0000001
 43
0.0000001
 44
0.0000000001
 40
0.0
 40
0.0
 40
0.0
 40
0.0
 40
0.0312507783
 40
0.0625015806
 40
0.0937523083
 40
0.1250028522
 40
0.1562529075
 40
0.1875017642
 40
0.2187483891
 40
0.2499918354
 40
0.2656173896
 40
0.2812429579
 40
0.2968685299
 40
0.3124940899
 40
0.3437391882
 40
0.3749870551
 40
0.406236628
 40
0.437486981
 40
0.4687376594
 40
0.4999884389
 40
0.5312392435
 40
0.5624900405
 40
0.6249913464
 40
0.6874927648
 40
0.7499942132
 40
0.812495669
 40
0.8749971256
 40
1.0
 40
1.0
 40
1.0
 40
1.0
 10
9.4703020587
 20
4.3013819935
 30
0.0
 10
9.4710510497
 20
4.2994852357
 30
0.0
 10
9.4725338708
 20
4.2956856974
 30
0.0
 10
9.4746975813
 20
4.2899630905
 30
0.0
 10
9.4767791268
 20
4.2842099631
 30
0.0
 10
9.4787464406
 20
4.2784165482
 30
0.0
 10
9.4805514048
 20
4.2725700828
 30
0.0
 10
9.482121462
 20
4.2666551869
 30
0.0
 10
9.4833518962
 20
4.2606588098
 30
0.0
 10
9.4839813008
 20
4.2555927543
 30
0.0
 10
9.4841874154
 20
4.2515183121
 30
0.0
 10
9.484186866
 20
4.2484579917
 30
0.0
 10
9.4840308763
 20
4.2454017229
 30
0.0
 10
9.4836259275
 20
4.2413422804
 30
0.0
 10
9.4827823241
 20
4.2363088948
 30
0.0
 10
9.481365406
 20
4.2303549582
 30
0.0
 10
9.4796660705
 20
4.2244764657
 30
0.0
 10
9.4777719937
 20
4.2186585293
 30
0.0
 10
9.4757422643
 20
4.2128868175
 30
0.0
 10
9.4736160739
 20
4.2071501092
 30
0.0
 10
9.4714196807
 20
4.201439998
 30
0.0
 10
9.4684212332
 20
4.1938538741
 30
0.0
 10
9.4645748496
 20
4.1844105355
 30
0.0
 10
9.4598636223
 20
4.173118163
 30
0.0
 10
9.4550894819
 20
4.1618522609
 30
0.0
 10
9.450272248
 20
4.1506047446
 30
0.0
 10
9.4438080614
 20
4.1356257876
 30
0.0
 10
9.4389261621
 20
4.1244061811
 30
0.0
 10
9.4356629783
 20
4.1169302053
 30
0.0
  0
SPLINE
  5
267
100
AcDbEntity
  8
0
100
AcDbSpline
 62
7
  6
CONTINUOUS
 70
0
 71
3
 72
13
 73
9
 74
0
 42
0.0000001
 43
0.0000001
 44
0.0000000001
 40
0.0
 40
0.0
 40
0.0
 40
0.0
 40
0.1249998151
 40
0.2499998172
 40
0.3749998747
 40
0.4999999462
 40
0.7499999203
 40
1.0
 40
1.0
 40
1.0
 40
1.0
 10
9.4703020803
 20
4.3013820221
 30
0.0
 10
9.468944141
 20
4.3048207873
 30
0.0
 10
9.4661790685
 20
4.3116789146
 30
0.0
 10
9.4619387063
 20
4.3219279712
 30
0.0
 10
9.4576363751
 20
4.3321511551
 30
0.0
 10
9.4518422046
 20
4.3457575815
 30
0.0
 10
9.4445226692
 20
4.3627327415
 30
0.0
 10
9.4386210288
 20
4.3762928813
 30
0.0
 10
9.4356629783
 20
4.3830697947
 30
0.0
  0
SPLINE
  5
268
100
AcDbEntity
  8
0
100
AcDbSpline
 62
7
  6
CONTINUOUS
 70
0
 71
3
 72
14
 73
10
 74
0
 42
0.0000001
 43
0.0000001
 44
0.0000000001
 40
0.0
 40
0.0
 40
0.0
 40
0.0
 40
0.2498455662
 40
0.3748917017
 40
0.4999376124
 40
0.6249735775
 40
0.749993209
 40
0.8749946455
 40
1.0
 40
1.0
 40
1.0
 40
1.0
 10
0.575554603
 20
4.3323563832
 30
0.0
 10
0.5758929964
 20
4.3319652794
 30
0.0
 10
0.576445899
 20
4.3314129527
 30
0.0
 10
0.5772853138
 20
4.3308042861
 30
0.0
 10
0.5779691852
 20
4.3304310182
 30
0.0
 10
0.5787028612
 20
4.3301662098
 30
0.0
 10
0.5794727417
 20
4.3300350914
 30
0.0
 10
0.5802535391
 20
4.3300535831
 30
0.0
 10
0.5807625317
 20
4.3301641736
 30
0.0
 10
0.5810097305
 20
4.3302406539
 30
0.0
  0
SPLINE
  5
269
100
AcDbEntity
  8
0
100
AcDbSpline
 62
7
  6
CONTINUOUS
 70
0
 71
3
 72
14
 73
10
 74
0
 42
0.0000001
 43
0.0000001
 44
0.0000000001
 40
0.0
 40
0.0
 40
0.0
 40
0.0
 40
0.1250053545
 40
0.250006791
 40
0.3750264225
 40
0.5000623876
 40
0.6251082983
 40
0.7501544338
 40
1.0
 40
1.0
 40
1.0
 40
1.0
 10
0.5810097305
 20
4.1697593461
 30
0.0
 10
0.5807625317
 20
4.1698358264
 30
0.0
 10
0.5802535391
 20
4.1699464169
 30
0.0
 10
0.5794727417
 20
4.1699649086
 30
0.0
 10
0.5787028612
 20
4.1698337902
 30
0.0
 10
0.5779691852
 20
4.1695689818
 30
0.0
 10
0.5772853138
 20
4.1691957139
 30
0.0
 10
0.576445899
 20
4.1685870473
 30
0.0
 10
0.5758929964
 20
4.1680347206
 30
0.0
 10
0.575554603
 20
4.1676436168
 30
0.0
  0
SPLINE
  5
26A
100
AcDbEntity
  8
0
100
AcDbSpline
 62
7
  6
CONTINUOUS
 70
0
 71
3
 72
19
 73
15
 74
0
 42
0.0000001
 43
0.0000001
 44
0.0000000001
 40
0.0
 40
0.0
 40
0.0
 40
0.0
 40
0.1249860156
 40
0.2499144628
 40
0.3124447073
 40
0.3749713937
 40
0.4374970132
 40
0.5000209367
 40
0.5625434431
 40
0.6250664277
 40
0.6875913311
 40
0.7501206507
 40
0.8750246676
 40
1.0
 40
1.0
 40
1.0
 40
1.0
 10
0.5582068462
 20
4.3317628163
 30
0.0
 10
0.5587381976
 20
4.3324281964
 30
0.0
 10
0.5598852432
 20
4.3336945029
 30
0.0
 10
0.5615604259
 20
4.3350297781
 30
0.0
 10
0.5630457305
 20
4.3358699606
 30
0.0
 10
0.5642283381
 20
4.3363633792
 30
0.0
 10
0.5654664507
 20
4.3366960057
 30
0.0
 10
0.5667398761
 20
4.3368483881
 30
0.0
 10
0.5680219389
 20
4.3368104491
 30
0.0
 10
0.5692842471
 20
4.3365848152
 30
0.0
 10
0.5705023863
 20
4.3361858243
 30
0.0
 10
0.5720435356
 20
4.3354523075
 30
0.0
 10
0.5737950072
 20
4.334215169
 30
0.0
 10
0.5749975021
 20
4.3330002619
 30
0.0
 10
0.575554603
 20
4.3323563832
 30
0.0
  0
SPLINE
  5
26B
100
AcDbEntity
  8
0
100
AcDbSpline
 62
7
  6
CONTINUOUS
 70
0
 71
3
 72
19
 73
15
 74
0
 42
0.0000001
 43
0.0000001
 44
0.0000000001
 40
0.0
 40
0.0
 40
0.0
 40
0.0
 40
0.1249753324
 40
0.2498793493
 40
0.3124086689
 40
0.3749335723
 40
0.4374565569
 40
0.4999790633
 40
0.5625029868
 40
0.6250286063
 40
0.6875552927
 40
0.7500855372
 40
0.8750139844
 40
1.0
 40
1.0
 40
1.0
 40
1.0
 10
0.575554603
 20
4.1676436168
 30
0.0
 10
0.5749975021
 20
4.1669997381
 30
0.0
 10
0.5737950072
 20
4.165784831
 30
0.0
 10
0.5720435356
 20
4.1645476925
 30
0.0
 10
0.5705023863
 20
4.1638141757
 30
0.0
 10
0.5692842471
 20
4.1634151848
 30
0.0
 10
0.5680219389
 20
4.1631895509
 30
0.0
 10
0.5667398761
 20
4.1631516119
 30
0.0
 10
0.5654664507
 20
4.1633039943
 30
0.0
 10
0.5642283381
 20
4.1636366208
 30
0.0
 10
0.5630457305
 20
4.1641300394
 30
0.0
 10
0.5615604259
 20
4.1649702219
 30
0.0
 10
0.5598852432
 20
4.1663054971
 30
0.0
 10
0.5587381976
 20
4.1675718036
 30
0.0
 10
0.5582068462
 20
4.1682371837
 30
0.0
  0
SPLINE
  5
26C
100
AcDbEntity
  8
02___PRT_ALL_AXES
100
AcDbSpline
 62
7
  6
CONTINUOUS
 70
0
 71
3
 72
22
 73
18
 74
0
 42
0.0000001
 43
0.0000001
 44
0.0000000001
 40
0.0
 40
0.0
 40
0.0
 40
0.0
 40
0.0945280197
 40
0.1446139191
 40
0.1967070901
 40
0.250886916
 40
0.3072052321
 40
0.365695078
 40
0.4263844017
 40
0.4892955277
 40
0.5544718227
 40
0.6219878201
 40
0.6919649305
 40
0.7645801785
 40
0.8400336583
 40
0.918490957
 40
1.0
 40
1.0
 40
1.0
 40
1.0
 10
9.4356629783
 20
4.2397429871
 30
0.0
 10
9.4376983781
 20
4.2408015211
 30
0.0
 10
9.4406821905
 20
4.2426827455
 30
0.0
 10
9.4444330528
 20
4.2456394321
 30
0.0
 10
9.4472490882
 20
4.2481879813
 30
0.0
 10
9.4499970159
 20
4.2510237102
 30
0.0
 10
9.4526583517
 20
4.2541480562
 30
0.0
 10
9.4552084756
 20
4.2575632896
 30
0.0
 10
9.4576176821
 20
4.2612720922
 30
0.0
 10
9.4598464343
 20
4.2652794148
 30
0.0
 10
9.4618474954
 20
4.2695893723
 30
0.0
 10
9.4635618754
 20
4.2742056781
 30
0.0
 10
9.4649224862
 20
4.2791271536
 30
0.0
 10
9.4658601672
 20
4.2843433148
 30
0.0
 10
9.4663162506
 20
4.2898305066
 30
0.0
 10
9.46625879
 20
4.2955513261
 30
0.0
 10
9.4658887103
 20
4.2994208307
 30
0.0
 10
9.4656294334
 20
4.3013819935
 30
0.0
  0
SPLINE
  5
26D
100
AcDbEntity
  8
02___PRT_ALL_AXES
100
AcDbSpline
 62
7
  6
CONTINUOUS
 70
0
 71
3
 72
65
 73
61
 74
0
 42
0.0000001
 43
0.0000001
 44
0.0000000001
 40
0.0
 40
0.0
 40
0.0
 40
0.0
 40
0.0656901789
 40
0.1313790447
 40
0.1642307784
 40
0.1970822381
 40
0.2299306471
 40
0.2627681567
 40
0.2955772904
 40
0.3283231432
 40
0.3609408077
 40
0.377169559
 40
0.3933154156
 40
0.409347287
 40
0.4252220202
 40
0.4408780379
 40
0.4562268399
 40
0.4637489348
 40
0.4711420203
 40
0.478381005
 40
0.4854351908
 40
0.4922699588
 40
0.4988464054
 40
0.505125492
 40
0.5110763356
 40
0.5166903055
 40
0.5193818221
 40
0.5220063021
 40
0.5245770361
 40
0.5271108543
 40
0.5296270591
 40
0.5321460877
 40
0.5346876514
 40
0.5372694936
 40
0.5426033258
 40
0.5482265542
 40
0.554160931
 40
0.5603953204
 40
0.5669023724
 40
0.5736491594
 40
0.5806027366
 40
0.5877340234
 40
0.5950165703
 40
0.6024286626
 40
0.6099513286
 40
0.6252675096
 40
0.6408665689
 40
0.6566769462
 40
0.6726460672
 40
0.6887348911
 40
0.7049144802
 40
0.7374603126
 40
0.7701603357
 40
0.8029421351
 40
0.835764306
 40
0.8686044194
 40
0.901451424
 40
0.9343005891
 40
0.9671502569
 40
1.0
 40
1.0
 40
1.0
 40
1.0
 10
1.7015860041
 20
4.2397429871
 30
0.0
 10
1.6881555836
 20
4.2397429871
 30
0.0
 10
1.6612834706
 20
4.2408152896
 30
0.0
 10
1.6279108306
 20
4.2448522296
 30
0.0
 10
1.601485866
 20
4.2497219333
 30
0.0
 10
1.5818354138
 20
4.2542045223
 30
0.0
 10
1.5623985876
 20
4.2595269694
 30
0.0
 10
1.54322402
 20
4.2657014741
 30
0.0
 10
1.5243720276
 20
4.2727423792
 30
0.0
 10
1.5059225493
 20
4.280667071
 30
0.0
 10
1.4909479026
 20
4.2880387591
 30
0.0
 10
1.4792893383
 20
4.2944174001
 30
0.0
 10
1.4707568261
 20
4.2994350616
 30
0.0
 10
1.4624594352
 20
4.3046992233
 30
0.0
 10
1.4544477957
 20
4.3102151871
 30
0.0
 10
1.4467921363
 20
4.3159872185
 30
0.0
 10
1.4407483089
 20
4.3210461376
 30
0.0
 10
1.4361976512
 20
4.3252401738
 30
0.0
 10
1.4329791514
 20
4.3284288112
 30
0.0
 10
1.4299605491
 20
4.3316783446
 30
0.0
 10
1.4271767919
 20
4.3349839733
 30
0.0
 10
1.4246696366
 20
4.338337328
 30
0.0
 10
1.422489337
 20
4.3417262447
 30
0.0
 10
1.4206943952
 20
4.3451334578
 30
0.0
 10
1.4193506393
 20
4.3485341912
 30
0.0
 10
1.4186563864
 20
4.3513783257
 30
0.0
 10
1.4184095978
 20
4.3536020501
 30
0.0
 10
1.4183815765
 20
4.3552168147
 30
0.0
 10
1.4185124321
 20
4.3567944065
 30
0.0
 10
1.4188053406
 20
4.3583277757
 30
0.0
 10
1.4192600661
 20
4.3598101929
 30
0.0
 10
1.4198742483
 20
4.3612355989
 30
0.0
 10
1.4206428379
 20
4.3625992871
 30
0.0
 10
1.421876617
 20
4.3643491814
 30
0.0
 10
1.4237869129
 20
4.3663733852
 30
0.0
 10
1.4265222755
 20
4.3684979996
 30
0.0
 10
1.4296495802
 20
4.3703696798
 30
0.0
 10
1.4331006862
 20
4.3720136348
 30
0.0
 10
1.4368177793
 20
4.3734563704
 30
0.0
 10
1.4407524262
 20
4.374722383
 30
0.0
 10
1.4448649911
 20
4.3758346493
 30
0.0
 10
1.4491236194
 20
4.376812529
 30
0.0
 10
1.4535025993
 20
4.3776741065
 30
0.0
 10
1.4579813535
 20
4.378434145
 30
0.0
 10
1.464100608
 20
4.3793350908
 30
0.0
 10
1.4719057356
 20
4.3802636375
 30
0.0
 10
1.4814194456
 20
4.3811383989
 30
0.0
 10
1.4910816913
 20
4.3818318529
 30
0.0
 10
1.5008531254
 20
4.3823836656
 30
0.0
 10
1.5107056702
 20
4.3828241915
 30
0.0
 10
1.5239488241
 20
4.3832937121
 30
0.0
 10
1.5405916875
 20
4.3837048208
 30
0.0
 10
1.5606312189
 20
4.3840185585
 30
0.0
 10
1.580728691
 20
4.3842145843
 30
0.0
 10
1.6008553614
 20
4.3843327796
 30
0.0
 10
1.6209955829
 20
4.3843998585
 30
0.0
 10
1.6411413961
 20
4.3844345213
 30
0.0
 10
1.6612891833
 20
4.3844500896
 30
0.0
 10
1.6814375343
 20
4.3844557648
 30
0.0
 10
1.6948698424
 20
4.3844565922
 30
0.0
 10
1.7015860041
 20
4.3844565922
 30
0.0
  0
ELLIPSE
  5
26E
100
AcDbEntity
  8
0
100
AcDbEllipse
 62
7
  6
CONTINUOUS
 10
0.9978223937
 20
4.25
 30
0.0
 11
0.1797864043
 21
-0.0
 31
0.0
 40
1.0
 41
-0.5047549306
 42
0.5047549306
  0
ENDSEC
  0
SECTION
  2
OBJECTS
  0
DICTIONARY
  5
C
100
AcDbDictionary
280
0
281
1
  3
ACAD_GROUP
350
D
  3
ACAD_MLINESTYLE
350
17
  3
ACAD_LAYOUT
350
1A
  3
ACAD_PLOTSETTINGS
350
19
  3
ACAD_PLOTSTYLENAME
350
E
  0
DICTIONARY
  5
D
102
{ACAD_REACTORS
330
C
102
}
100
AcDbDictionary
280
0
281
1
  0
ACDBDICTIONARYWDFLT
  5
E
102
{ACAD_REACTORS
330
C
102
}
100
AcDbDictionary
281
1
  3
Normal
350
F
100
AcDbDictionaryWithDefault
340
F
  0
DICTIONARY
  5
17
102
{ACAD_REACTORS
330
C
102
}
100
AcDbDictionary
280
0
281
1
  3
Standard
350
18
  0
DICTIONARY
  5
19
102
{ACAD_REACTORS
330
C
102
}
100
AcDbDictionary
281
1
  0
DICTIONARY
  5
1A
102
{ACAD_REACTORS
330
C
102
}
100
AcDbDictionary
281
1
  3
Model
350
26F
  3
Layout1
350
270
  0
ACDBPLACEHOLDER
  5
F
102
{ACAD_REACTORS
330
E
102
}
  0
MLINESTYLE
  5
18
102
{ACAD_REACTORS
330
17
102
}
100
AcDbMlineStyle
  2
STANDARD
 70
0
  3

 62
256
 51
90.0
 52
90.0
 71
2
 49
0.5
 62
256
  6
BYLAYER
 49
-0.5
 62
256
  6
BYLAYER
  0
LAYOUT
  5
26F
102
{ACAD_REACTORS
330
1A
102
}
100
AcDbPlotSettings
  1

  2
none_device
  4
ANSI_A_(11.00_x_8.50_Inches)
  6

 40
0.0
 41
0.0
 42
0.0
 43
0.0
 44
279.4
 45
215.9
 46
0.0
 47
0.0
 48
0.0
 49
0.0
140
0.0
141
0.0
142
1.0
143
1.0
 70
1024
 72
0
 73
0
 74
0
  7

 75
0
147
1.0
148
0.0
149
0.0
100
AcDbLayout
  1
Model
 70
0
 71
0
 10
0.0
 20
0.0
 11
11.0
 21
8.5
 12
0.0
 22
0.0
 32
0.0
 14
0.0
 24
0.0
 34
0.0
 15
0.0
 25
0.0
 35
0.0
146
0.0
 13
0.0
 23
0.0
 33
0.0
 16
1.0
 26
0.0
 36
0.0
 17
0.0
 27
1.0
 37
0.0
 76
0
330
21B
345
0
346
0
  0
LAYOUT
  5
270
102
{ACAD_REACTORS
330
1A
102
}
100
AcDbPlotSettings
  1

  2
none_device
  4
ANSI_A_(11.00_x_8.50_Inches)
  6

 40
0.0
 41
0.0
 42
0.0
 43
0.0
 44
279.4
 45
215.9
 46
0.0
 47
0.0
 48
0.0
 49
0.0
140
0.0
141
0.0
142
1.0
143
1.0
 70
0
 72
0
 73
0
 74
0
  7

 75
0
147
1.0
148
0.0
149
0.0
100
AcDbLayout
  1
Layout1
 70
0
 71
1
 10
0.0
 20
0.0
 11
11.0
 21
8.5
 12
0.0
 22
0.0
 32
0.0
 14
0.0
 24
0.0
 34
0.0
 15
0.0
 25
0.0
 35
0.0
146
0.0
 13
0.0
 23
0.0
 33
0.0
 16
1.0
 26
0.0
 36
0.0
 17
0.0
 27
1.0
 37
0.0
 76
0
330
21C
345
0
346
0
  0
ENDSEC
  0
EOF
