999
DXF file: C:\Users\caps\Desktop\ToolMD\MassCreate\TA_Holder_20200918_103343\210Z0S-16FM.dxf
999
Pro/ENGINEER 2016260 by Parametric Technology Corporation
  0
SECTION
  2
HEADER
  9
$ACADVER
  1
AC1027
  9
$DWGCODEPAGE
  3
ANSI_1252
  9
$EXTMAX
 10
11.0
 20
8.5
 30
0.0
  9
$EXTMIN
 10
0.0
 20
0.0
 30
0.0
  9
$LIMMIN
 10
0.0
 20
0.0
  9
$LIMMAX
 10
11.0
 20
8.5
  9
$VIEWCTR
 10
5.5
 20
4.25
  9
$VIEWSIZE
 40
8.5
  9
$CLAYER
  8
0
  9
$LTSCALE
 40
0.605
  9
$CELTYPE
  6
BYLAYER
  9
$DIMSCALE
 40
1.0
  9
$DIMASZ
 40
0.1875
  9
$DIMEXO
 40
0.0625
  9
$DIMDLI
 40
0.418
  9
$DIMEXE
 40
0.125
  9
$DIMCEN
 40
0.099
  9
$DIMLFAC
 40
1.0
  9
$DIMBLK
  1
_CLOSED
  9
$DIMALT
 70
0
  9
$DIMALTF
 40
25.4
  9
$DIMTXT
 40
0.15625
  9
$DIMTOL
 70
0
  9
$DIMLIM
 70
0
  9
$DIMTFAC
 40
1.0
  9
$DIMGAP
 40
0.09
  9
$DIMDSEP
 70
46
  9
$AUNITS
 70
0
  9
$PDMODE
 70
3
  9
$PDSIZE
 40
0.3125
  9
$HANDSEED
  5
292
  9
$TILEMODE
 70
1
  9
$MEASUREMENT
 70
0
  9
$INSUNITS
 70
1
  0
ENDSEC
  0
SECTION
  2
CLASSES
  0
CLASS
  1
ACDBDICTIONARYWDFLT
  2
AcDbDictionaryWithDefault
  3
AutoCAD 2000
 90
0
 91
1
280
0
281
0
  0
CLASS
  1
ACDBPLACEHOLDER
  2
AcDbPlaceHolder
  3
AutoCAD 2000
 90
0
 91
1
280
0
281
0
  0
CLASS
  1
LAYOUT
  2
AcDbLayout
  3
AutoCAD 2000
 90
0
 91
0
280
0
281
0
  0
ENDSEC
  0
SECTION
  2
TABLES
  0
TABLE
  2
VPORT
  5
8
100
AcDbSymbolTable
 70
2
  0
VPORT
  5
1F4
100
AcDbSymbolTableRecord
100
AcDbViewportTableRecord
  2
*ACTIVE
 70
0
 10
0.0
 20
0.0
 11
1.0
 21
1.0
 12
5.5
 22
4.25
 13
0.0
 23
0.0
 14
1.0
 24
1.0
 15
0.0
 25
0.0
 16
0.0
 26
0.0
 36
1.0
 17
0.0
 27
0.0
 37
0.0
 40
8.5
 41
1.2941176471
 42
50.0
 43
0.0
 44
0.0
 50
0.0
 51
0.0
 71
0
 72
100
 73
1
 74
1
 75
0
 76
0
 77
0
 78
0
  0
ENDTAB
  0
TABLE
  2
LTYPE
  5
5
100
AcDbSymbolTable
 70
6
  0
LTYPE
  5
14
100
AcDbSymbolTableRecord
100
AcDbLinetypeTableRecord
  2
BYBLOCK
 70
0
  3

 72
65
 73
0
 40
0.0
  0
LTYPE
  5
15
100
AcDbSymbolTableRecord
100
AcDbLinetypeTableRecord
  2
BYLAYER
 70
0
  3

 72
65
 73
0
 40
0.0
  0
LTYPE
  5
16
100
AcDbSymbolTableRecord
100
AcDbLinetypeTableRecord
  2
CONTINUOUS
 70
64
  3
Solid line
 72
65
 73
0
 40
0.0
  0
LTYPE
  5
1F5
100
AcDbSymbolTableRecord
100
AcDbLinetypeTableRecord
  2
CENTER
 70
64
  3
____ _ ____ _ ____ _ ____ _ ____ _ ____ _ ____
 72
65
 73
4
 40
0.6
 49
0.375
 74
0
 49
-0.075
 74
0
 49
0.075
 74
0
 49
-0.075
 74
0
  0
LTYPE
  5
1F6
100
AcDbSymbolTableRecord
100
AcDbLinetypeTableRecord
  2
HIDDEN
 70
64
  3
- - - - - - - - - - - - - - - - - - - -
 72
65
 73
2
 40
0.2
 49
0.1
 74
0
 49
-0.1
 74
0
  0
LTYPE
  5
1F7
100
AcDbSymbolTableRecord
100
AcDbLinetypeTableRecord
  2
PHANTOM
 70
64
  3
_____ _ _ _____ _ _ _____ _ _ _____
 72
65
 73
6
 40
0.8
 49
0.45
 74
0
 49
-0.05
 74
0
 49
0.1
 74
0
 49
-0.05
 74
0
 49
0.1
 74
0
 49
-0.05
 74
0
  0
LTYPE
  5
1F8
100
AcDbSymbolTableRecord
100
AcDbLinetypeTableRecord
  2
DOT
 70
64
  3
. . . . . . . . . . . . . . . . . . . .
 72
65
 73
2
 40
0.2
 49
0.1
 74
0
 49
-0.1
 74
0
  0
LTYPE
  5
1F9
100
AcDbSymbolTableRecord
100
AcDbLinetypeTableRecord
  2
DASHED
 70
64
  3
- - - - - - - - - - - - - - - - - - - -
 72
65
 73
2
 40
0.2
 49
0.1
 74
0
 49
-0.1
 74
0
  0
ENDTAB
  0
TABLE
  2
LAYER
  5
2
100
AcDbSymbolTable
 70
36
  0
LAYER
  5
10
100
AcDbSymbolTableRecord
100
AcDbLayerTableRecord
  2
0
 70
0
 62
7
  6
CONTINUOUS
370
-3
390
F
  0
LAYER
  5
1FA
100
AcDbSymbolTableRecord
100
AcDbLayerTableRecord
  2
DEFAULT_1
 70
0
 62
7
  6
CENTER
370
-3
390
F
  0
LAYER
  5
1FB
100
AcDbSymbolTableRecord
100
AcDbLayerTableRecord
  2
DEFAULT_2
 70
0
 62
8
  6
HIDDEN
370
-3
390
F
  0
LAYER
  5
1FC
100
AcDbSymbolTableRecord
100
AcDbLayerTableRecord
  2
DEFAULT_3
 70
0
 62
7
  6
PHANTOM
370
-3
390
F
  0
LAYER
  5
1FD
100
AcDbSymbolTableRecord
100
AcDbLayerTableRecord
  2
01_ALL_DTM_PLN
 70
0
 62
7
  6
CONTINUOUS
370
-3
390
F
  0
LAYER
  5
1FE
100
AcDbSymbolTableRecord
100
AcDbLayerTableRecord
  2
01__ASM_ALL_DTM_PLN
 70
0
 62
7
  6
CONTINUOUS
370
-3
390
F
  0
LAYER
  5
1FF
100
AcDbSymbolTableRecord
100
AcDbLayerTableRecord
  2
01__ASM_DEF_DTM_PLN
 70
0
 62
7
  6
CONTINUOUS
370
-3
390
F
  0
LAYER
  5
200
100
AcDbSymbolTableRecord
100
AcDbLayerTableRecord
  2
01___PRT_ALL_DTM_PLN
 70
0
 62
7
  6
CONTINUOUS
370
-3
390
F
  0
LAYER
  5
201
100
AcDbSymbolTableRecord
100
AcDbLayerTableRecord
  2
01___PRT_DEF_DTM_PLN
 70
0
 62
7
  6
CONTINUOUS
370
-3
390
F
  0
LAYER
  5
202
100
AcDbSymbolTableRecord
100
AcDbLayerTableRecord
  2
02_ALL_AXES
 70
0
 62
7
  6
CONTINUOUS
370
-3
390
F
  0
LAYER
  5
203
100
AcDbSymbolTableRecord
100
AcDbLayerTableRecord
  2
02__ASM_ALL_AXES
 70
0
 62
7
  6
CONTINUOUS
370
-3
390
F
  0
LAYER
  5
204
100
AcDbSymbolTableRecord
100
AcDbLayerTableRecord
  2
02___PRT_ALL_AXES
 70
0
 62
7
  6
CONTINUOUS
370
-3
390
F
  0
LAYER
  5
205
100
AcDbSymbolTableRecord
100
AcDbLayerTableRecord
  2
03_ALL_CURVES
 70
0
 62
7
  6
CONTINUOUS
370
-3
390
F
  0
LAYER
  5
206
100
AcDbSymbolTableRecord
100
AcDbLayerTableRecord
  2
03__ASM_ALL_CURVES
 70
0
 62
7
  6
CONTINUOUS
370
-3
390
F
  0
LAYER
  5
207
100
AcDbSymbolTableRecord
100
AcDbLayerTableRecord
  2
03___PRT_ALL_CURVES
 70
0
 62
7
  6
CONTINUOUS
370
-3
390
F
  0
LAYER
  5
208
100
AcDbSymbolTableRecord
100
AcDbLayerTableRecord
  2
04_ALL_DTM_PNT
 70
0
 62
7
  6
CONTINUOUS
370
-3
390
F
  0
LAYER
  5
209
100
AcDbSymbolTableRecord
100
AcDbLayerTableRecord
  2
04__ASM_ALL_DTM_PNT
 70
0
 62
7
  6
CONTINUOUS
370
-3
390
F
  0
LAYER
  5
20A
100
AcDbSymbolTableRecord
100
AcDbLayerTableRecord
  2
04___PRT_ALL_DTM_PNT
 70
0
 62
7
  6
CONTINUOUS
370
-3
390
F
  0
LAYER
  5
20B
100
AcDbSymbolTableRecord
100
AcDbLayerTableRecord
  2
05_ALL_DTM_CSYS
 70
0
 62
7
  6
CONTINUOUS
370
-3
390
F
  0
LAYER
  5
20C
100
AcDbSymbolTableRecord
100
AcDbLayerTableRecord
  2
05__ASM_ALL_DTM_CSYS
 70
0
 62
7
  6
CONTINUOUS
370
-3
390
F
  0
LAYER
  5
20D
100
AcDbSymbolTableRecord
100
AcDbLayerTableRecord
  2
05__ASM_DEF_DTM_CSYS
 70
0
 62
7
  6
CONTINUOUS
370
-3
390
F
  0
LAYER
  5
20E
100
AcDbSymbolTableRecord
100
AcDbLayerTableRecord
  2
05___PRT_ALL_DTM_CSYS
 70
0
 62
7
  6
CONTINUOUS
370
-3
390
F
  0
LAYER
  5
20F
100
AcDbSymbolTableRecord
100
AcDbLayerTableRecord
  2
05___PRT_DEF_DTM_CSYS
 70
0
 62
7
  6
CONTINUOUS
370
-3
390
F
  0
LAYER
  5
210
100
AcDbSymbolTableRecord
100
AcDbLayerTableRecord
  2
06_ALL_SURFS
 70
0
 62
7
  6
CONTINUOUS
370
-3
390
F
  0
LAYER
  5
211
100
AcDbSymbolTableRecord
100
AcDbLayerTableRecord
  2
06__ASM_ALL_SURFS
 70
0
 62
7
  6
CONTINUOUS
370
-3
390
F
  0
LAYER
  5
212
100
AcDbSymbolTableRecord
100
AcDbLayerTableRecord
  2
06___PRT_ALL_SURFS
 70
0
 62
7
  6
CONTINUOUS
370
-3
390
F
  0
LAYER
  5
213
100
AcDbSymbolTableRecord
100
AcDbLayerTableRecord
  2
07__ASM_ALL_SKELETONS
 70
0
 62
7
  6
CONTINUOUS
370
-3
390
F
  0
LAYER
  5
214
100
AcDbSymbolTableRecord
100
AcDbLayerTableRecord
  2
HELICAL_FLUTE_CURVES
 70
0
 62
7
  6
CONTINUOUS
370
-3
390
F
  0
LAYER
  5
215
100
AcDbSymbolTableRecord
100
AcDbLayerTableRecord
  2
HOLDER_LEADER
 70
0
 62
7
  6
CONTINUOUS
370
-3
390
F
  0
LAYER
  5
216
100
AcDbSymbolTableRecord
100
AcDbLayerTableRecord
  2
NOCUT
 70
0
 62
7
  6
CONTINUOUS
370
-3
390
F
  0
LAYER
  5
217
100
AcDbSymbolTableRecord
100
AcDbLayerTableRecord
  2
NON_MACHINING_CLOUD_CSYS
 70
0
 62
7
  6
CONTINUOUS
370
-3
390
F
  0
LAYER
  5
218
100
AcDbSymbolTableRecord
100
AcDbLayerTableRecord
  2
SHANK_CURVES
 70
0
 62
7
  6
CONTINUOUS
370
-3
390
F
  0
ENDTAB
  0
TABLE
  2
STYLE
  5
3
100
AcDbSymbolTable
 70
1
  0
STYLE
  5
11
100
AcDbSymbolTableRecord
100
AcDbTextStyleTableRecord
  2
STANDARD
 70
0
 40
0.0
 41
0.8
 50
0.0
 71
0
 42
0.2
  3
txt
  4

  0
STYLE
  5
219
100
AcDbSymbolTableRecord
100
AcDbTextStyleTableRecord
  2
TEXTSTYLE_1
 70
0
 40
0.0
 41
0.8
 50
0.0
 71
0
 42
0.2
  3
gdt
  4

  0
ENDTAB
  0
TABLE
  2
VIEW
  5
6
100
AcDbSymbolTable
 70
0
  0
ENDTAB
  0
TABLE
  2
UCS
  5
7
100
AcDbSymbolTable
 70
0
  0
ENDTAB
  0
TABLE
  2
APPID
  5
9
100
AcDbSymbolTable
 70
1
  0
APPID
  5
21A
100
AcDbSymbolTableRecord
100
AcDbRegAppTableRecord
  2
ACAD
 70
0
  0
ENDTAB
  0
TABLE
  2
BLOCK_RECORD
  5
1
100
AcDbSymbolTable
 70
0
  0
BLOCK_RECORD
  5
21B
100
AcDbSymbolTableRecord
100
AcDbBlockTableRecord
  2
*Model_Space
  0
BLOCK_RECORD
  5
21C
100
AcDbSymbolTableRecord
100
AcDbBlockTableRecord
  2
*Paper_Space
  0
ENDTAB
  0
TABLE
  2
DIMSTYLE
  5
A
100
AcDbSymbolTable
 70
1
100
AcDbDimStyleTable
 71
0
  0
DIMSTYLE
105
21D
100
AcDbSymbolTableRecord
100
AcDbDimStyleTableRecord
  2
STANDARD
 70
0
  3

  4

 40
1.0
 41
0.1875
 42
0.0625
 43
0.38
 44
0.125
 45
0.0
 46
0.0
 47
0.0001
 48
0.0001
140
0.15625
141
0.09
142
0.0
143
25.4
144
1.0
145
0.0
146
1.0
147
0.09
 71
0.0
 72
0.0
 73
1
 74
1
 75
0
 76
0
 77
0
 78
4
170
0
171
3
172
0
173
0
174
0
175
0
176
0
177
0
178
0
270
2
271
4
272
4
273
2
274
2
275
0
280
0
281
0
282
0
283
1
284
4
285
0
286
0
287
3
288
0
340
11
278
46
  0
ENDTAB
  0
ENDSEC
  0
SECTION
  2
BLOCKS
  0
BLOCK
  5
20
100
AcDbEntity
  8
0
100
AcDbBlockBegin
  2
*Model_Space
 70
0
 10
0.0
 20
0.0
 30
0.0
  3
*Model_Space
  1

  0
ENDBLK
  5
21
100
AcDbEntity
  8
0
100
AcDbBlockEnd
  0
BLOCK
  5
1C
100
AcDbEntity
  8
0
100
AcDbBlockBegin
  2
*Paper_Space
 70
0
 10
0.0
 20
0.0
 30
0.0
  3
*Paper_Space
  1

  0
ENDBLK
  5
1D
100
AcDbEntity
  8
0
100
AcDbBlockEnd
  0
ENDSEC
  0
SECTION
  2
ENTITIES
  0
MTEXT
  5
21E
100
AcDbEntity
  8
0
100
AcDbMText
 62
5
  6
CONTINUOUS
  7
STANDARD
 71
3
 72
1
 10
10.9218751216
 20
0.2343749474
 30
0.0
 11
1.0
 21
0.0
 31
0.0
 44
0.9
  1
SCALE 1.996
 40
0.15625
 41
1.375
  0
MTEXT
  5
21F
100
AcDbEntity
  8
0
100
AcDbMText
 62
5
  6
CONTINUOUS
  7
STANDARD
 71
1
 72
1
 10
0.0925915769
 20
0.2230497798
 30
0.0
 11
1.0
 21
0.0
 31
0.0
 44
0.9
  1
* DIMENSIONS CANNOT BE CONFIGURED UNTIL ASSEMBLY IS COMPLETE 
 40
0.125
 41
6.1
  0
LINE
  5
220
100
AcDbEntity
  8
0
100
AcDbLine
 62
7
  6
CONTINUOUS
 10
0.0
 20
0.0
 11
0.0
 21
8.5
  0
LINE
  5
221
100
AcDbEntity
  8
0
100
AcDbLine
 62
7
  6
CONTINUOUS
 10
0.0
 20
0.0
 11
11.0
 21
0.0
  0
LINE
  5
222
100
AcDbEntity
  8
0
100
AcDbLine
 62
7
  6
CONTINUOUS
 10
0.0
 20
8.5
 11
11.0
 21
8.5
  0
LINE
  5
223
100
AcDbEntity
  8
0
100
AcDbLine
 62
7
  6
CONTINUOUS
 10
11.0
 20
0.0
 11
11.0
 21
8.5
  0
LINE
  5
224
100
AcDbEntity
  8
0
100
AcDbLine
 62
7
  6
CONTINUOUS
 10
0.55
 20
3.671700337
 11
0.55
 21
4.7569393139
  0
LINE
  5
225
100
AcDbEntity
  8
0
100
AcDbLine
 62
7
  6
CONTINUOUS
 10
0.9232393495
 20
4.7569393139
 11
0.9232393495
 21
4.6215877198
  0
LINE
  5
226
100
AcDbEntity
  8
0
100
AcDbLine
 62
7
  6
CONTINUOUS
 10
0.9232393495
 20
3.8784122802
 11
0.9232393495
 21
3.6214581147
  0
LINE
  5
227
100
AcDbEntity
  8
DEFAULT_2
100
AcDbLine
 62
8
  6
HIDDEN
 10
0.9232393495
 20
3.8784122802
 11
0.9232393495
 21
4.6215877198
  0
LINE
  5
228
100
AcDbEntity
  8
0
100
AcDbLine
 62
7
  6
CONTINUOUS
 10
0.55
 20
3.6717001879
 11
0.6073830551
 21
3.6385700656
  0
LINE
  5
229
100
AcDbEntity
  8
0
100
AcDbLine
 62
7
  6
CONTINUOUS
 10
5.6000743097
 20
3.2520338249
 11
4.3530271048
 21
3.2520338249
  0
LINE
  5
22A
100
AcDbEntity
  8
02___PRT_ALL_AXES
100
AcDbLine
 62
8
  6
HIDDEN
 10
5.2419660557
 20
3.2528325174
 11
5.6000743097
 21
3.2528325174
  0
LINE
  5
22B
100
AcDbEntity
  8
0
100
AcDbLine
 62
7
  6
CONTINUOUS
 10
0.766823008
 20
3.6434409979
 11
0.9232393495
 21
3.6214581147
  0
LINE
  5
22C
100
AcDbEntity
  8
0
100
AcDbLine
 62
7
  6
CONTINUOUS
 10
3.9648909492
 20
4.8785418853
 11
3.8432883778
 21
4.7569393139
  0
LINE
  5
22D
100
AcDbEntity
  8
0
100
AcDbLine
 62
7
  6
CONTINUOUS
 10
4.3218406618
 20
5.2167797321
 11
4.3530271048
 21
5.2479661751
  0
LINE
  5
22E
100
AcDbEntity
  8
0
100
AcDbLine
 62
7
  6
CONTINUOUS
 10
4.3218406618
 20
3.6214581147
 11
0.9232393495
 21
3.6214581147
  0
LINE
  5
22F
100
AcDbEntity
  8
0
100
AcDbLine
 62
7
  6
CONTINUOUS
 10
4.3218406618
 20
3.2832202679
 11
4.3530271048
 21
3.2520338249
  0
LINE
  5
230
100
AcDbEntity
  8
0
100
AcDbLine
 62
7
  6
CONTINUOUS
 10
3.8432883778
 20
4.6215877198
 11
3.8432883778
 21
3.8784122802
  0
LINE
  5
231
100
AcDbEntity
  8
02___PRT_ALL_AXES
100
AcDbLine
 62
7
  6
CONTINUOUS
 10
6.1842164069
 20
3.8208745447
 11
7.3696293605
 21
3.8208745447
  0
LINE
  5
232
100
AcDbEntity
  8
02___PRT_ALL_AXES
100
AcDbLine
 62
8
  6
HIDDEN
 10
6.7309310085
 20
3.822748991
 11
7.3696293605
 21
3.822748991
  0
LINE
  5
233
100
AcDbEntity
  8
0
100
AcDbLine
 62
7
  6
CONTINUOUS
 10
7.3696293605
 20
3.8311866254
 11
7.754661982
 21
3.8311866254
  0
LINE
  5
234
100
AcDbEntity
  8
0
100
AcDbLine
 62
7
  6
CONTINUOUS
 10
0.9232393495
 20
3.8784122802
 11
3.8432883778
 21
3.8784122802
  0
LINE
  5
235
100
AcDbEntity
  8
DEFAULT_2
100
AcDbLine
 62
8
  6
HIDDEN
 10
7.8909777153
 20
4.170162706
 11
7.3696293605
 21
4.170162706
  0
LINE
  5
236
100
AcDbEntity
  8
02___PRT_ALL_AXES
100
AcDbLine
 62
7
  6
CONTINUOUS
 10
6.7309310085
 20
4.2187953088
 11
7.754661982
 21
4.2187953088
  0
LINE
  5
237
100
AcDbEntity
  8
02___PRT_ALL_AXES
100
AcDbLine
 62
8
  6
HIDDEN
 10
6.7309310085
 20
4.2812046912
 11
7.754661982
 21
4.2812046912
  0
LINE
  5
238
100
AcDbEntity
  8
0
100
AcDbLine
 62
7
  6
CONTINUOUS
 10
4.3218406618
 20
3.2832202679
 11
4.3218406618
 21
5.2167797321
  0
LINE
  5
239
100
AcDbEntity
  8
0
100
AcDbLine
 62
7
  6
CONTINUOUS
 10
4.3530271048
 20
3.2520338249
 11
4.3530271048
 21
5.2479661751
  0
LINE
  5
23A
100
AcDbEntity
  8
02___PRT_ALL_AXES
100
AcDbLine
 62
7
  6
CONTINUOUS
 10
7.3696293605
 20
4.329837294
 11
7.8909777153
 21
4.329837294
  0
LINE
  5
23B
100
AcDbEntity
  8
0
100
AcDbLine
 62
7
  6
CONTINUOUS
 10
0.9232393495
 20
4.6215877198
 11
3.8432883778
 21
4.6215877198
  0
LINE
  5
23C
100
AcDbEntity
  8
0
100
AcDbLine
 62
7
  6
CONTINUOUS
 10
7.3696293605
 20
4.6688133746
 11
7.754661982
 21
4.6688133746
  0
LINE
  5
23D
100
AcDbEntity
  8
02___PRT_ALL_AXES
100
AcDbLine
 62
7
  6
CONTINUOUS
 10
6.7309310085
 20
4.677251009
 11
7.3696293605
 21
4.677251009
  0
LINE
  5
23E
100
AcDbEntity
  8
02___PRT_ALL_AXES
100
AcDbLine
 62
7
  6
CONTINUOUS
 10
6.1842164069
 20
4.6791254553
 11
7.3696293605
 21
4.6791254553
  0
LINE
  5
23F
100
AcDbEntity
  8
0
100
AcDbLine
 62
7
  6
CONTINUOUS
 10
0.55
 20
4.7569393139
 11
3.8432883778
 21
4.7569393139
  0
LINE
  5
240
100
AcDbEntity
  8
02___PRT_ALL_AXES
100
AcDbLine
 62
8
  6
HIDDEN
 10
5.9894858857
 20
4.1878617042
 11
5.9849636006
 21
4.1865561278
  0
LINE
  5
241
100
AcDbEntity
  8
0
100
AcDbLine
 62
7
  6
CONTINUOUS
 10
4.3218406618
 20
4.8785418853
 11
3.9648909492
 21
4.8785418853
  0
LINE
  5
242
100
AcDbEntity
  8
02___PRT_ALL_AXES
100
AcDbLine
 62
7
  6
CONTINUOUS
 10
5.9894858857
 20
4.3121382958
 11
5.9849636006
 21
4.3134438722
  0
LINE
  5
243
100
AcDbEntity
  8
02___PRT_ALL_AXES
100
AcDbLine
 62
7
  6
CONTINUOUS
 10
5.2419660557
 20
5.2471674826
 11
5.6000743097
 21
5.2471674826
  0
LINE
  5
244
100
AcDbEntity
  8
0
100
AcDbLine
 62
7
  6
CONTINUOUS
 10
5.6000743097
 20
5.2479661751
 11
4.3530271048
 21
5.2479661751
  0
LINE
  5
245
100
AcDbEntity
  8
0
100
AcDbLine
 62
7
  6
CONTINUOUS
 10
5.6498875113
 20
3.276869771
 11
5.9849636006
 21
3.7215307601
  0
LINE
  5
246
100
AcDbEntity
  8
0
100
AcDbLine
 62
7
  6
CONTINUOUS
 10
5.6498875113
 20
5.223130229
 11
5.9849636006
 21
4.7784692399
  0
LINE
  5
247
100
AcDbEntity
  8
02___PRT_ALL_AXES
100
AcDbLine
 62
7
  6
CONTINUOUS
 10
7.3696293605
 20
3.8311866254
 11
7.3696293605
 21
3.8208747048
  0
LINE
  5
248
100
AcDbEntity
  8
DEFAULT_2
100
AcDbLine
 62
8
  6
HIDDEN
 10
7.3696293605
 20
3.8311866254
 11
7.3696293605
 21
4.329837294
  0
LINE
  5
249
100
AcDbEntity
  8
02___PRT_ALL_AXES
100
AcDbLine
 62
7
  6
CONTINUOUS
 10
7.3696293605
 20
4.329837294
 11
7.3696293605
 21
4.6791252952
  0
LINE
  5
24A
100
AcDbEntity
  8
02___PRT_ALL_AXES
100
AcDbLine
 62
8
  6
HIDDEN
 10
7.754661982
 20
4.6688133746
 11
7.754661982
 21
4.2812046912
  0
LINE
  5
24B
100
AcDbEntity
  8
02___PRT_ALL_AXES
100
AcDbLine
 62
7
  6
CONTINUOUS
 10
7.754661982
 20
4.2187953088
 11
7.754661982
 21
3.8311866254
  0
LINE
  5
24C
100
AcDbEntity
  8
0
100
AcDbLine
 62
7
  6
CONTINUOUS
 10
9.3585243943
 20
4.329837294
 11
9.3585243943
 21
3.8311866254
  0
LINE
  5
24D
100
AcDbEntity
  8
02___PRT_ALL_AXES
100
AcDbLine
 62
7
  6
CONTINUOUS
 10
9.4121151779
 20
5.2471674826
 11
9.4121151779
 21
4.8296813405
  0
LINE
  5
24E
100
AcDbEntity
  8
02___PRT_ALL_AXES
100
AcDbLine
 62
7
  6
CONTINUOUS
 10
9.5455432555
 20
4.170162706
 11
9.654131798
 21
4.170162706
  0
LINE
  5
24F
100
AcDbEntity
  8
02___PRT_ALL_AXES
100
AcDbLine
 62
7
  6
CONTINUOUS
 10
9.4919524719
 20
3.2528325174
 11
9.4919524719
 21
3.6703186595
  0
LINE
  5
250
100
AcDbEntity
  8
0
100
AcDbLine
 62
7
  6
CONTINUOUS
 10
9.5455432555
 20
4.170162706
 11
9.5455432555
 21
4.6688133746
  0
LINE
  5
251
100
AcDbEntity
  8
02___PRT_ALL_AXES
100
AcDbLine
 62
7
  6
CONTINUOUS
 10
9.3585243943
 20
4.329837294
 11
9.2499358518
 21
4.329837294
  0
ARC
  5
252
100
AcDbEntity
  8
02___PRT_ALL_AXES
100
AcDbCircle
 62
7
  6
CONTINUOUS
 10
-16.574987281
 20
-12.1034348694
 40
28.1761508329
100
AcDbArc
 50
36.8053530639
 51
36.9396417116
  0
ARC
  5
253
100
AcDbEntity
  8
02___PRT_ALL_AXES
100
AcDbCircle
 62
8
  6
HIDDEN
 10
-16.5749872062
 20
20.6034348133
 40
28.1761507395
100
AcDbArc
 50
323.0603582882
 51
323.1946469364
  0
ARC
  5
254
100
AcDbEntity
  8
0
100
AcDbCircle
 62
7
  6
CONTINUOUS
 10
3.094656007
 20
13.0311924478
 40
9.4068265354
100
AcDbArc
 50
255.6726129493
 51
256.6538181431
  0
ARC
  5
255
100
AcDbEntity
  8
0
100
AcDbCircle
 62
7
  6
CONTINUOUS
 10
3.0946559996
 20
-4.5311924213
 40
9.4068265078
100
AcDbArc
 50
103.3461818503
 51
104.3273870471
  0
ARC
  5
256
100
AcDbEntity
  8
02___PRT_ALL_AXES
100
AcDbCircle
 62
8
  6
HIDDEN
 10
6.7309310085
 20
1.5455116655
 40
2.7444069815
100
AcDbArc
 50
105.6741410353
 51
137.5576032345
  0
ARC
  5
257
100
AcDbEntity
  8
02___PRT_ALL_AXES
100
AcDbCircle
 62
8
  6
HIDDEN
 10
6.7309310085
 20
6.9544883345
 40
2.7444069815
100
AcDbArc
 50
222.4423967655
 51
254.3258589647
  0
ARC
  5
258
100
AcDbEntity
  8
DEFAULT_2
100
AcDbCircle
 62
8
  6
HIDDEN
 10
7.3894154101
 20
4.3151827829
 40
0.5221068556
100
AcDbArc
 50
343.8734770374
 51
344.2778671283
  0
ARC
  5
259
100
AcDbEntity
  8
DEFAULT_2
100
AcDbCircle
 62
8
  6
HIDDEN
 10
7.3896774216
 20
4.1848921537
 40
0.521834341
100
AcDbArc
 50
15.7220082292
 51
16.1266146838
  0
ARC
  5
25A
100
AcDbEntity
  8
0
100
AcDbCircle
 62
7
  6
CONTINUOUS
 10
6.1842164069
 20
4.9286169991
 40
0.2494915438
100
AcDbArc
 50
217.0
 51
270.0
  0
ARC
  5
25B
100
AcDbEntity
  8
0
100
AcDbCircle
 62
7
  6
CONTINUOUS
 10
6.1842164069
 20
3.5713830009
 40
0.2494915438
100
AcDbArc
 50
90.0
 51
143.0
  0
ARC
  5
25C
100
AcDbEntity
  8
0
100
AcDbCircle
 62
7
  6
CONTINUOUS
 10
0.669755941
 20
3.7466030731
 40
0.1247457719
100
AcDbArc
 50
240.0
 51
298.1872754631
  0
CIRCLE
  5
25D
100
AcDbEntity
  8
02___PRT_ALL_AXES
100
AcDbCircle
 62
7
  6
CONTINUOUS
 10
7.6259070743
 20
4.0257570005
 40
0.0785800138
  0
CIRCLE
  5
25E
100
AcDbEntity
  8
02___PRT_ALL_AXES
100
AcDbCircle
 62
7
  6
CONTINUOUS
 10
7.6259070743
 20
4.4742429995
 40
0.0785800138
  0
ARC
  5
25F
100
AcDbEntity
  8
0
100
AcDbCircle
 62
7
  6
CONTINUOUS
 10
5.6000743097
 20
5.1855932892
 40
0.0623728859
100
AcDbArc
 50
37.0
 51
90.0
  0
ARC
  5
260
100
AcDbEntity
  8
0
100
AcDbCircle
 62
7
  6
CONTINUOUS
 10
5.6000743097
 20
3.3144067108
 40
0.0623728859
100
AcDbArc
 50
270.0
 51
323.0
  0
ARC
  5
261
100
AcDbEntity
  8
0
100
AcDbCircle
 62
7
  6
CONTINUOUS
 10
0.75814238
 20
3.5816751206
 40
0.0623728859
100
AcDbArc
 50
82.0
 51
118.1872754631
  0
ARC
  5
262
100
AcDbEntity
  8
02___PRT_ALL_AXES
100
AcDbCircle
 62
8
  6
HIDDEN
 10
5.6000667382
 20
3.3151867211
 40
0.0623547662
100
AcDbArc
 50
270.006957264
 51
323.0328674462
  0
ARC
  5
263
100
AcDbEntity
  8
02___PRT_ALL_AXES
100
AcDbCircle
 62
7
  6
CONTINUOUS
 10
5.6000667382
 20
5.1848132787
 40
0.0623547662
100
AcDbArc
 50
36.9671326754
 51
89.9930427324
  0
CIRCLE
  5
264
100
AcDbEntity
  8
02___PRT_ALL_AXES
100
AcDbCircle
 62
7
  6
CONTINUOUS
 10
9.4520338249
 20
4.25
 40
0.9979661751
  0
ARC
  5
265
100
AcDbEntity
  8
02___PRT_ALL_AXES
100
AcDbCircle
 62
7
  6
CONTINUOUS
 10
10.486221465
 20
3.6705731039
 40
0.9942690256
100
AcDbArc
 50
176.9689159504
 51
180.0146626263
  0
ARC
  5
266
100
AcDbEntity
  8
02___PRT_ALL_AXES
100
AcDbCircle
 62
7
  6
CONTINUOUS
 10
8.4178461873
 20
4.829426896
 40
0.9942690232
100
AcDbArc
 50
356.9689159467
 51
0.01466263
  0
ARC
  5
267
100
AcDbEntity
  8
02___PRT_ALL_AXES
100
AcDbCircle
 62
7
  6
CONTINUOUS
 10
9.970976236
 20
3.810894883
 40
0.479023764
100
AcDbArc
 50
100.9452917377
 51
178.5819916437
  0
ARC
  5
268
100
AcDbEntity
  8
02___PRT_ALL_AXES
100
AcDbCircle
 62
7
  6
CONTINUOUS
 10
8.9330914139
 20
4.689105117
 40
0.479023764
100
AcDbArc
 50
280.9452917377
 51
358.5819916437
  0
ARC
  5
269
100
AcDbEntity
  8
02___PRT_ALL_AXES
100
AcDbCircle
 62
7
  6
CONTINUOUS
 10
9.4520338249
 20
4.25
 40
0.4291254553
100
AcDbArc
 50
176.8088328463
 51
276.177018433
  0
ARC
  5
26A
100
AcDbEntity
  8
02___PRT_ALL_AXES
100
AcDbCircle
 62
7
  6
CONTINUOUS
 10
9.4520338249
 20
4.25
 40
0.4291254553
100
AcDbArc
 50
356.8088328463
 51
96.177018433
  0
SPLINE
  5
26B
100
AcDbEntity
  8
02___PRT_ALL_AXES
100
AcDbSpline
 62
8
  6
HIDDEN
 70
0
 71
3
 72
89
 73
85
 74
0
 42
0.0000001
 43
0.0000001
 44
0.0000000001
 40
0.0
 40
0.0
 40
0.0
 40
0.0
 40
0.0065495022
 40
0.0129848867
 40
0.0193030869
 40
0.025501243
 40
0.0315767571
 40
0.0375270781
 40
0.0433498384
 40
0.0490430828
 40
0.0546052118
 40
0.0600349628
 40
0.0653316661
 40
0.0704953099
 40
0.0755265591
 40
0.0804269457
 40
0.0851990093
 40
0.0898464069
 40
0.0943740208
 40
0.0987881383
 40
0.1030965872
 40
0.1073087323
 40
0.1114356331
 40
0.1154900236
 40
0.119486168
 40
0.1234398302
 40
0.1273679551
 40
0.1312883899
 40
0.1352195123
 40
0.1391797991
 40
0.1431874489
 40
0.1472598813
 40
0.151413547
 40
0.1556635137
 40
0.1600233023
 40
0.1645049094
 40
0.169118499
 40
0.1738726646
 40
0.1787744117
 40
0.1838291217
 40
0.1890409074
 40
0.194412547
 40
0.1999456497
 40
0.2056408919
 40
0.2114980056
 40
0.2175159502
 40
0.2236930544
 40
0.2300270965
 40
0.236515356
 40
0.2431547241
 40
0.2499418573
 40
0.2568730997
 40
0.2639445591
 40
0.2711523546
 40
0.2784924449
 40
0.2859606154
 40
0.3012646925
 40
0.3170319426
 40
0.3332303307
 40
0.3498285994
 40
0.3667975118
 40
0.3841087921
 40
0.4017366017
 40
0.4196560535
 40
0.4378446466
 40
0.4562809291
 40
0.4749452883
 40
0.4938196091
 40
0.5128866459
 40
0.5321311775
 40
0.551538286
 40
0.5907879419
 40
0.6305389114
 40
0.6505760575
 40
0.6707079325
 40
0.7112223489
 40
0.7520183968
 40
0.7725046185
 40
0.7930408178
 40
0.8342400902
 40
0.8548920948
 40
0.8755721704
 40
0.9169991997
 40
1.0
 40
1.0
 40
1.0
 40
1.0
 10
4.7056789055
 20
3.3975709664
 30
0.0
 10
4.7046835672
 20
3.3964825429
 30
0.0
 10
4.7027265658
 20
3.3943096464
 30
0.0
 10
4.6998701699
 20
3.3910326582
 30
0.0
 10
4.697121736
 20
3.3877673247
 30
0.0
 10
4.6944848657
 20
3.3845149112
 30
0.0
 10
4.6919631906
 20
3.381276733
 30
0.0
 10
4.6895604434
 20
3.3780541647
 30
0.0
 10
4.6872804438
 20
3.3748486412
 30
0.0
 10
4.6851270496
 20
3.3716616524
 30
0.0
 10
4.6831041511
 20
3.3684947497
 30
0.0
 10
4.6812156669
 20
3.3653495519
 30
0.0
 10
4.6794655574
 20
3.3622277152
 30
0.0
 10
4.677857789
 20
3.3591309347
 30
0.0
 10
4.6763962286
 20
3.3560609964
 30
0.0
 10
4.6750847797
 20
3.3530196902
 30
0.0
 10
4.6739273356
 20
3.3500088211
 30
0.0
 10
4.672927518
 20
3.3470302995
 30
0.0
 10
4.6720890011
 20
3.3440859976
 30
0.0
 10
4.6714153884
 20
3.341177805
 30
0.0
 10
4.6709098163
 20
3.3383077003
 30
0.0
 10
4.6705755569
 20
3.3354775987
 30
0.0
 10
4.6704155865
 20
3.3326894729
 30
0.0
 10
4.6704323001
 20
3.3299453051
 30
0.0
 10
4.670628319
 20
3.3272470706
 30
0.0
 10
4.671005489
 20
3.324596758
 30
0.0
 10
4.6715652383
 20
3.3219962645
 30
0.0
 10
4.6723090593
 20
3.3194475637
 30
0.0
 10
4.6732372592
 20
3.3169523506
 30
0.0
 10
4.6743501646
 20
3.3145122906
 30
0.0
 10
4.6756476364
 20
3.3121289569
 30
0.0
 10
4.6771286081
 20
3.3098034283
 30
0.0
 10
4.6787922265
 20
3.3075369555
 30
0.0
 10
4.6806367756
 20
3.3053302991
 30
0.0
 10
4.6826602405
 20
3.3031839898
 30
0.0
 10
4.6848605649
 20
3.3010986919
 30
0.0
 10
4.6872349133
 20
3.2990744053
 30
0.0
 10
4.6897804922
 20
3.2971113064
 30
0.0
 10
4.6924941627
 20
3.2952093747
 30
0.0
 10
4.6953723717
 20
3.2933681678
 30
0.0
 10
4.6984115868
 20
3.2915874855
 30
0.0
 10
4.7016079114
 20
3.2898667325
 30
0.0
 10
4.7049572947
 20
3.288205185
 30
0.0
 10
4.708455652
 20
3.2866022283
 30
0.0
 10
4.7120986672
 20
3.2850568855
 30
0.0
 10
4.7158819888
 20
3.2835681839
 30
0.0
 10
4.7198012489
 20
3.282135155
 30
0.0
 10
4.723851991
 20
3.2807565948
 30
0.0
 10
4.7280297786
 20
3.2794313113
 30
0.0
 10
4.7323302102
 20
3.2781580924
 30
0.0
 10
4.7367488989
 20
3.2769356074
 30
0.0
 10
4.7412815111
 20
3.2757625167
 30
0.0
 10
4.7459237918
 20
3.2746374617
 30
0.0
 10
4.7506715721
 20
3.2735590632
 30
0.0
 10
4.7555207698
 20
3.2725259112
 30
0.0
 10
4.7621703643
 20
3.2711960141
 30
0.0
 10
4.7707101953
 20
3.2696443462
 30
0.0
 10
4.7812207812
 20
3.2679549505
 30
0.0
 10
4.7920483362
 20
3.2664127003
 30
0.0
 10
4.8031671477
 20
3.2650068714
 30
0.0
 10
4.8145533859
 20
3.2637276507
 30
0.0
 10
4.8261850886
 20
3.2625651186
 30
0.0
 10
4.8380419385
 20
3.2615105115
 30
0.0
 10
4.8501053317
 20
3.2605549054
 30
0.0
 10
4.8623580973
 20
3.2596905539
 30
0.0
 10
4.8747845248
 20
3.258909698
 30
0.0
 10
4.8873701722
 20
3.2582053898
 30
0.0
 10
4.9001017505
 20
3.2575711954
 30
0.0
 10
4.912967112
 20
3.2570007504
 30
0.0
 10
4.9259550001
 20
3.2564888289
 30
0.0
 10
4.9434872293
 20
3.2558746025
 30
0.0
 10
4.9656389203
 20
3.2552295644
 30
0.0
 10
4.9879359669
 20
3.2547199015
 30
0.0
 10
5.0059302444
 20
3.2543766527
 30
0.0
 10
5.0240971486
 20
3.2540709625
 30
0.0
 10
5.0469392879
 20
3.2537562578
 30
0.0
 10
5.0698620879
 20
3.2535140317
 30
0.0
 10
5.0882864733
 20
3.2533553761
 30
0.0
 10
5.1068018309
 20
3.2532173111
 30
0.0
 10
5.1253547254
 20
3.2531081715
 30
0.0
 10
5.1439401314
 20
3.2530224906
 30
0.0
 10
5.1625768876
 20
3.2529508595
 30
0.0
 10
5.1952542648
 20
3.2528602722
 30
0.0
 10
5.2232747363
 20
3.2528325174
 30
0.0
 10
5.2419660557
 20
3.2528325174
 30
0.0
  0
SPLINE
  5
26C
100
AcDbEntity
  8
02___PRT_ALL_AXES
100
AcDbSpline
 62
8
  6
HIDDEN
 70
0
 71
3
 72
15
 73
11
 74
0
 42
0.0000001
 43
0.0000001
 44
0.0000000001
 40
0.0
 40
0.0
 40
0.0
 40
0.0
 40
0.1249482371
 40
0.2499316818
 40
0.3749329262
 40
0.4999425856
 40
0.624955738
 40
0.7499701874
 40
0.8749850418
 40
1.0
 40
1.0
 40
1.0
 40
1.0
 10
6.1842164069
 20
3.82336596
 30
0.0
 10
6.2069865775
 20
3.8232704474
 30
0.0
 10
6.2525334947
 20
3.8231168851
 30
0.0
 10
6.3208605238
 20
3.8229652649
 30
0.0
 10
6.3891988433
 20
3.8228686602
 30
0.0
 10
6.4575426163
 20
3.8228098811
 30
0.0
 10
6.5258888117
 20
3.8227762688
 30
0.0
 10
6.5942359591
 20
3.8227586011
 30
0.0
 10
6.6625834372
 20
3.8227505102
 30
0.0
 10
6.7081484784
 20
3.822748991
 30
0.0
 10
6.7309310085
 20
3.822748991
 30
0.0
  0
SPLINE
  5
26D
100
AcDbEntity
  8
02___PRT_ALL_AXES
100
AcDbSpline
 62
8
  6
HIDDEN
 70
0
 71
3
 72
15
 73
11
 74
0
 42
0.0000001
 43
0.0000001
 44
0.0000000001
 40
0.0
 40
0.0
 40
0.0
 40
0.0
 40
0.1250007615
 40
0.2500017757
 40
0.3750017608
 40
0.5000017258
 40
0.6250019185
 40
0.7500025062
 40
0.8750032215
 40
1.0
 40
1.0
 40
1.0
 40
1.0
 10
6.7309310085
 20
4.2812046912
 30
0.0
 10
6.7079970417
 20
4.2812046912
 30
0.0
 10
6.6621270239
 20
4.2806359757
 30
0.0
 10
6.5933661412
 20
4.2780753254
 30
0.0
 10
6.5246900245
 20
4.2738026354
 30
0.0
 10
6.4561426657
 20
4.2678107636
 30
0.0
 10
6.3877682467
 20
4.2600897253
 30
0.0
 10
6.3196126085
 20
4.2506269472
 30
0.0
 10
6.2517250162
 20
4.2394072063
 30
0.0
 10
6.2066770748
 20
4.2307432224
 30
0.0
 10
6.1842164069
 20
4.2261116233
 30
0.0
  0
SPLINE
  5
26E
100
AcDbEntity
  8
02___PRT_ALL_AXES
100
AcDbSpline
 62
8
  6
HIDDEN
 70
0
 71
3
 72
31
 73
27
 74
0
 42
0.0000001
 43
0.0000001
 44
0.0000000001
 40
0.0
 40
0.0
 40
0.0
 40
0.0
 40
0.0505070505
 40
0.1023012157
 40
0.1554891064
 40
0.182638425
 40
0.210171148
 40
0.2664170516
 40
0.2951509754
 40
0.3243000866
 40
0.3838603428
 40
0.4451419864
 40
0.476438968
 40
0.5081762682
 40
0.5403561929
 40
0.5729798501
 40
0.6060494875
 40
0.6395673751
 40
0.7079464733
 40
0.7428189118
 40
0.778147358
 40
0.813935697
 40
0.8501896534
 40
0.9241129458
 40
0.961808593
 40
1.0
 40
1.0
 40
1.0
 40
1.0
 10
7.754661982
 20
4.2812046912
 30
0.0
 10
7.7569811881
 20
4.2802086902
 30
0.0
 10
7.7616160828
 20
4.2780423081
 30
0.0
 10
7.7684495674
 20
4.274334711
 30
0.0
 10
7.7740666906
 20
4.2708563189
 30
0.0
 10
7.7785300742
 20
4.2678324983
 30
0.0
 10
7.7830345534
 20
4.2646004422
 30
0.0
 10
7.7874706488
 20
4.2611407269
 30
0.0
 10
7.7918316092
 20
4.2574642219
 30
0.0
 10
7.7962226223
 20
4.2535691027
 30
0.0
 10
7.8016412182
 20
4.2483853176
 30
0.0
 10
7.8068747032
 20
4.2428659154
 30
0.0
 10
7.8109842423
 20
4.2382061294
 30
0.0
 10
7.8140446429
 20
4.2345620631
 30
0.0
 10
7.8170572488
 20
4.230793144
 30
0.0
 10
7.8200170598
 20
4.2268986448
 30
0.0
 10
7.8229191274
 20
4.2228780982
 30
0.0
 10
7.8267295831
 20
4.2173121506
 30
0.0
 10
7.8303733179
 20
4.2115251714
 30
0.0
 10
7.8338302757
 20
4.2055235841
 30
0.0
 10
7.8363485608
 20
4.2008630543
 30
0.0
 10
7.8387667377
 20
4.1960722626
 30
0.0
 10
7.8418655496
 20
4.1894679263
 30
0.0
 10
7.8447029246
 20
4.1826384931
 30
0.0
 10
7.8472456127
 20
4.1755959076
 30
0.0
 10
7.8484161206
 20
4.1719877702
 30
0.0
 10
7.8489744984
 20
4.170162706
 30
0.0
  0
LINE
  5
26F
100
AcDbEntity
  8
02___PRT_ALL_AXES
100
AcDbLine
 62
8
  6
HIDDEN
 10
5.6498875113
 20
3.2776888645
 11
5.9453380093
 21
3.6703186595
  0
SPLINE
  5
270
100
AcDbEntity
  8
02___PRT_ALL_AXES
100
AcDbSpline
 62
8
  6
HIDDEN
 70
0
 71
3
 72
29
 73
25
 74
0
 42
0.0000001
 43
0.0000001
 44
0.0000000001
 40
0.0
 40
0.0
 40
0.0
 40
0.0
 40
0.0709611181
 40
0.141765116
 40
0.2121977359
 40
0.2820514177
 40
0.3511100003
 40
0.4191578485
 40
0.4859799148
 40
0.5513642128
 40
0.6151042389
 40
0.6770010005
 40
0.7071985873
 40
0.7368652263
 40
0.7659791395
 40
0.7945191318
 40
0.82246541
 40
0.8497987751
 40
0.8765010965
 40
0.9025553194
 40
0.927945436
 40
0.9526578885
 40
0.9766802864
 40
1.0
 40
1.0
 40
1.0
 40
1.0
 10
6.1842164069
 20
4.2261116233
 30
0.0
 10
6.179618016
 20
4.2251633923
 30
0.0
 10
6.1704265751
 20
4.2232924144
 30
0.0
 10
6.1566544458
 20
4.2205623498
 30
0.0
 10
6.142940886
 20
4.2179145511
 30
0.0
 10
6.1293287847
 20
4.2153512814
 30
0.0
 10
6.1158616468
 20
4.2128715163
 30
0.0
 10
6.1025839679
 20
4.2104709636
 30
0.0
 10
6.0895404219
 20
4.2081421021
 30
0.0
 10
6.0767754909
 20
4.2058744545
 30
0.0
 10
6.0643330209
 20
4.2036547947
 30
0.0
 10
6.0541872499
 20
4.201817395
 30
0.0
 10
6.0462652457
 20
4.2003524119
 30
0.0
 10
6.0404794963
 20
4.1992639338
 30
0.0
 10
6.0348056115
 20
4.198174239
 30
0.0
 10
6.0292483979
 20
4.1970808446
 30
0.0
 10
6.0238125605
 20
4.1959811724
 30
0.0
 10
6.0185026694
 20
4.1948726183
 30
0.0
 10
6.013323191
 20
4.1937525729
 30
0.0
 10
6.0082784725
 20
4.1926184205
 30
0.0
 10
6.0033726778
 20
4.1914674959
 30
0.0
 10
5.9986097673
 20
4.1902972024
 30
0.0
 10
5.9939936562
 20
4.1891049091
 30
0.0
 10
5.9909713396
 20
4.1882813551
 30
0.0
 10
5.9894857669
 20
4.1878645069
 30
0.0
  0
SPLINE
  5
271
100
AcDbEntity
  8
02___PRT_ALL_AXES
100
AcDbSpline
 62
8
  6
HIDDEN
 70
0
 71
3
 72
23
 73
19
 74
0
 42
0.0000001
 43
0.0000001
 44
0.0000000001
 40
0.0
 40
0.0
 40
0.0
 40
0.0
 40
0.0624749224
 40
0.1249402581
 40
0.187396565
 40
0.2498538251
 40
0.3123167736
 40
0.3747907362
 40
0.4372789025
 40
0.4997824923
 40
0.5623008489
 40
0.6248314377
 40
0.6873700236
 40
0.7499112088
 40
0.812449777
 40
0.8749792205
 40
0.9374984407
 40
1.0
 40
1.0
 40
1.0
 40
1.0
 10
5.9849636006
 20
3.7231477871
 30
0.0
 10
5.987849177
 20
3.7270050815
 30
0.0
 10
5.9938410939
 20
3.734556414
 30
0.0
 10
6.0034576569
 20
3.7453509347
 30
0.0
 10
6.0136736761
 20
3.7555787528
 30
0.0
 10
6.0244573328
 20
3.7652058077
 30
0.0
 10
6.0357764035
 20
3.774199592
 30
0.0
 10
6.0475964412
 20
3.7825282711
 30
0.0
 10
6.0598811156
 20
3.7901610958
 30
0.0
 10
6.072591776
 20
3.7970686168
 30
0.0
 10
6.0856873413
 20
3.8032231289
 30
0.0
 10
6.0991242382
 20
3.8085991926
 30
0.0
 10
6.1128564765
 20
3.8131741946
 30
0.0
 10
6.1268359479
 20
3.8169290357
 30
0.0
 10
6.1410127081
 20
3.8198484619
 30
0.0
 10
6.1553361118
 20
3.8219217679
 30
0.0
 10
6.1697538279
 20
3.8231422508
 30
0.0
 10
6.1793972104
 20
3.8233861748
 30
0.0
 10
6.1842164069
 20
3.82336596
 30
0.0
  0
SPLINE
  5
272
100
AcDbEntity
  8
02___PRT_ALL_AXES
100
AcDbSpline
 62
8
  6
HIDDEN
 70
0
 71
3
 72
37
 73
33
 74
0
 42
0.0000001
 43
0.0000001
 44
0.0000000001
 40
0.0
 40
0.0
 40
0.0
 40
0.0
 40
0.0252907142
 40
0.0508737812
 40
0.0767709366
 40
0.103004405
 40
0.1565487798
 40
0.1838997806
 40
0.2116517057
 40
0.2398149877
 40
0.2683980576
 40
0.2974071236
 40
0.3268465699
 40
0.3567188191
 40
0.3870246077
 40
0.4177629936
 40
0.4489315198
 40
0.4805263617
 40
0.5125423427
 40
0.5449732401
 40
0.5778116529
 40
0.611049356
 40
0.6446772132
 40
0.678685371
 40
0.7130634741
 40
0.7478004122
 40
0.7828846642
 40
0.8183041329
 40
0.8540467139
 40
0.8901007272
 40
0.9264539052
 40
1.0
 40
1.0
 40
1.0
 40
1.0
 10
5.9849636006
 20
4.1865561278
 30
0.0
 10
5.9811573706
 20
4.1854197861
 30
0.0
 10
5.9735488735
 20
4.1829700217
 30
0.0
 10
5.9622294841
 20
4.1788062504
 30
0.0
 10
5.9509461211
 20
4.1741425976
 30
0.0
 10
5.9358554598
 20
4.1672247839
 30
0.0
 10
5.9209531398
 20
4.1593772027
 30
0.0
 10
5.9062648883
 20
4.1506870581
 30
0.0
 10
5.8952244583
 20
4.1436724593
 30
0.0
 10
5.8842419467
 20
4.1362180368
 30
0.0
 10
5.8733191446
 20
4.1283341981
 30
0.0
 10
5.8624581337
 20
4.1200313803
 30
0.0
 10
5.8516604452
 20
4.1113203542
 30
0.0
 10
5.8409275412
 20
4.1022117935
 30
0.0
 10
5.8302605535
 20
4.0927166043
 30
0.0
 10
5.8196604535
 20
4.0828457095
 30
0.0
 10
5.809128038
 20
4.0726100829
 30
0.0
 10
5.7986638506
 20
4.0620208283
 30
0.0
 10
5.7882683774
 20
4.0510889528
 30
0.0
 10
5.7779418177
 20
4.0398256201
 30
0.0
 10
5.7676843298
 20
4.0282418633
 30
0.0
 10
5.7574958574
 20
4.0163487805
 30
0.0
 10
5.7473762288
 20
4.0041573998
 30
0.0
 10
5.737325159
 20
3.9916786659
 30
0.0
 10
5.7273421974
 20
3.9789234968
 30
0.0
 10
5.7174268269
 20
3.9659026854
 30
0.0
 10
5.7075784166
 20
3.9526269931
 30
0.0
 10
5.6977962142
 20
3.9391070383
 30
0.0
 10
5.6880793234
 20
3.9253532008
 30
0.0
 10
5.6784266788
 20
3.9113756159
 30
0.0
 10
5.6655917046
 20
3.8923814132
 30
0.0
 10
5.6561339192
 20
3.8779405032
 30
0.0
 10
5.6498875113
 20
3.8682236838
 30
0.0
  0
SPLINE
  5
273
100
AcDbEntity
  8
02___PRT_ALL_AXES
100
AcDbSpline
 62
8
  6
HIDDEN
 70
0
 71
3
 72
48
 73
44
 74
0
 42
0.0000001
 43
0.0000001
 44
0.0000000001
 40
0.0
 40
0.0
 40
0.0
 40
0.0
 40
0.0677225902
 40
0.135286988
 40
0.2026559497
 40
0.26978317
 40
0.3366110069
 40
0.4030673602
 40
0.4361289803
 40
0.4690609311
 40
0.5018476232
 40
0.5344711382
 40
0.5669107209
 40
0.599143365
 40
0.6311414458
 40
0.6628741531
 40
0.6786296536
 40
0.69430489
 40
0.7253909067
 40
0.7407895994
 40
0.7560829317
 40
0.7712628774
 40
0.7863214383
 40
0.8012496139
 40
0.8160371085
 40
0.8306735701
 40
0.8451470097
 40
0.8594443789
 40
0.873551999
 40
0.8874539281
 40
0.9011337818
 40
0.9145727569
 40
0.9277510804
 40
0.9406466783
 40
0.9469812976
 40
0.9532363473
 40
0.9654940204
 40
0.9714902664
 40
0.9773933017
 40
0.983199426
 40
0.9889050902
 40
0.9945065727
 40
1.0
 40
1.0
 40
1.0
 40
1.0
 10
5.6000743097
 20
3.8296892732
 30
0.0
 10
5.5783663491
 20
3.8233899615
 30
0.0
 10
5.5351091685
 20
3.81043014
 30
0.0
 10
5.4706625437
 20
3.7898826288
 30
0.0
 10
5.4067803174
 20
3.7682533105
 30
0.0
 10
5.3435330456
 20
3.7455494279
 30
0.0
 10
5.2810044201
 20
3.7217793049
 30
0.0
 10
5.2294924855
 20
3.7010553732
 30
0.0
 10
5.1887318614
 20
3.6839408597
 30
0.0
 10
5.1584651983
 20
3.6708658986
 30
0.0
 10
5.1284714094
 20
3.6575325782
 30
0.0
 10
5.0987733053
 20
3.643943271
 30
0.0
 10
5.0693967833
 20
3.6301004237
 30
0.0
 10
5.0403711142
 20
3.6160077085
 30
0.0
 10
5.0117299952
 20
3.6016684884
 30
0.0
 10
4.9881598516
 20
3.5894897299
 30
0.0
 10
4.969529574
 20
3.5796225685
 30
0.0
 10
4.951158357
 20
3.5697285763
 30
0.0
 10
4.9329979796
 20
3.5596951021
 30
0.0
 10
4.9150665771
 20
3.5495151799
 30
0.0
 10
4.9018129143
 20
3.5418498764
 30
0.0
 10
4.8887216145
 20
3.534131648
 30
0.0
 10
4.8758026144
 20
3.5263622425
 30
0.0
 10
4.863066829
 20
3.5185435224
 30
0.0
 10
4.8505263398
 20
3.5106772358
 30
0.0
 10
4.8381940788
 20
3.5027659883
 30
0.0
 10
4.8260843762
 20
3.4948122711
 30
0.0
 10
4.8142129635
 20
3.4868189205
 30
0.0
 10
4.8025968813
 20
3.4787896969
 30
0.0
 10
4.7912551713
 20
3.4707280256
 30
0.0
 10
4.7802084461
 20
3.4626388055
 30
0.0
 10
4.7694796342
 20
3.4545267555
 30
0.0
 10
4.7590938003
 20
3.446398039
 30
0.0
 10
4.7506987233
 20
3.4395757969
 30
0.0
 10
4.7441800299
 20
3.4341110924
 30
0.0
 10
4.7378817454
 20
3.4287156875
 30
0.0
 10
4.731758701
 20
3.4232898178
 30
0.0
 10
4.7258269683
 20
3.4178285284
 30
0.0
 10
4.7215334023
 20
3.4137678305
 30
0.0
 10
4.7173676784
 20
3.4097139508
 30
0.0
 10
4.7133350559
 20
3.4056685103
 30
0.0
 10
4.7094410887
 20
3.40163325
 30
0.0
 10
4.7069162473
 20
3.3989240259
 30
0.0
 10
4.7056789055
 20
3.3975709664
 30
0.0
  0
SPLINE
  5
274
100
AcDbEntity
  8
02___PRT_ALL_AXES
100
AcDbSpline
 62
8
  6
HIDDEN
 70
0
 71
3
 72
16
 73
12
 74
0
 42
0.0000001
 43
0.0000001
 44
0.0000000001
 40
0.0
 40
0.0
 40
0.0
 40
0.0
 40
0.1192360646
 40
0.240885949
 40
0.3646324651
 40
0.4901227707
 40
0.6169511658
 40
0.7446267564
 40
0.8086177842
 40
0.8725828272
 40
1.0
 40
1.0
 40
1.0
 40
1.0
 10
5.6498875113
 20
3.8682236838
 30
0.0
 10
5.6485059251
 20
3.8660745089
 30
0.0
 10
5.6455376312
 20
3.8618438924
 30
0.0
 10
5.640552147
 20
3.8558178197
 30
0.0
 10
5.6350056541
 20
3.8501138694
 30
0.0
 10
5.6289233495
 20
3.844813473
 30
0.0
 10
5.6223386218
 20
3.8400063977
 30
0.0
 10
5.6164738968
 20
3.8364949683
 30
0.0
 10
5.6115801885
 20
3.8340294632
 30
0.0
 10
5.6065744283
 20
3.8318153759
 30
0.0
 10
5.6026963867
 20
3.8304501591
 30
0.0
 10
5.6000743097
 20
3.8296892732
 30
0.0
  0
SPLINE
  5
275
100
AcDbEntity
  8
0
100
AcDbSpline
 62
7
  6
CONTINUOUS
 70
0
 71
3
 72
54
 73
50
 74
0
 42
0.0000001
 43
0.0000001
 44
0.0000000001
 40
0.0
 40
0.0
 40
0.0
 40
0.0
 40
0.0156250584
 40
0.0312500912
 40
0.0468750911
 40
0.062500049
 40
0.0781249574
 40
0.0937498098
 40
0.1093746093
 40
0.1249993687
 40
0.1328120883
 40
0.1406248132
 40
0.1484375422
 40
0.1562502751
 40
0.1640630048
 40
0.1718757341
 40
0.1875004698
 40
0.203125238
 40
0.2187500551
 40
0.2499967319
 40
0.2656217017
 40
0.2812467104
 40
0.2968717516
 40
0.312496818
 40
0.3281219027
 40
0.3437469982
 40
0.3593720992
 40
0.3749972093
 40
0.390622327
 40
0.4062474346
 40
0.4218725526
 40
0.4374976581
 40
0.4531227705
 40
0.4687478681
 40
0.4843729741
 40
0.4999980649
 40
0.5312482158
 40
0.5624983585
 40
0.5781234407
 40
0.5937485146
 40
0.6249986559
 40
0.6874988659
 40
0.7499990876
 40
0.8124993118
 40
0.8437494297
 40
0.8749995452
 40
0.9062496625
 40
0.9374997782
 40
1.0
 40
1.0
 40
1.0
 40
1.0
 10
7.8909777153
 20
4.329837294
 30
0.0
 10
7.8917412999
 20
4.3271960078
 30
0.0
 10
7.8932281132
 20
4.3219016439
 30
0.0
 10
7.8953185165
 20
4.3139221208
 30
0.0
 10
7.8972478657
 20
4.305901977
 30
0.0
 10
7.8989923512
 20
4.2978394375
 30
0.0
 10
7.9005260486
 20
4.2897339568
 30
0.0
 10
7.9018217973
 20
4.2815868007
 30
0.0
 10
7.9028527215
 20
4.273401732
 30
0.0
 10
7.9034706493
 20
4.2665543244
 30
0.0
 10
7.9038105547
 20
4.2610656523
 30
0.0
 10
7.9039865645
 20
4.2569448704
 30
0.0
 10
7.9040824096
 20
4.2528214484
 30
0.0
 10
7.9040973093
 20
4.2486969363
 30
0.0
 10
7.9040312258
 20
4.2445729152
 30
0.0
 10
7.903835774
 20
4.2390771921
 30
0.0
 10
7.9033925801
 20
4.232216155
 30
0.0
 10
7.9025571847
 20
4.2240086129
 30
0.0
 10
7.9010674628
 20
4.2131111203
 30
0.0
 10
7.8990644117
 20
4.2022907842
 30
0.0
 10
7.8966571448
 20
4.1915598059
 30
0.0
 10
7.894674444
 20
4.1835526344
 30
0.0
 10
7.8925377029
 20
4.1755854425
 30
0.0
 10
7.8902673306
 20
4.1676553591
 30
0.0
 10
7.8878811717
 20
4.1597594285
 30
0.0
 10
7.8853946366
 20
4.1518945865
 30
0.0
 10
7.8828209553
 20
4.1440578741
 30
0.0
 10
7.8801714148
 20
4.1362465149
 30
0.0
 10
7.8774556055
 20
4.1284579745
 30
0.0
 10
7.8746819088
 20
4.1206898801
 30
0.0
 10
7.8718571559
 20
4.1129402237
 30
0.0
 10
7.8689875909
 20
4.1052070595
 30
0.0
 10
7.8660781537
 20
4.097488821
 30
0.0
 10
7.863133571
 20
4.0897839295
 30
0.0
 10
7.8601573658
 20
4.0820912068
 30
0.0
 10
7.8561518322
 20
4.0718487534
 30
0.0
 10
7.8510817643
 20
4.0590705026
 30
0.0
 10
7.8459439262
 20
4.0463193915
 30
0.0
 10
7.8417999934
 20
4.03613217
 30
0.0
 10
7.8376358061
 20
4.0259532107
 30
0.0
 10
7.8302993557
 20
4.0081601976
 30
0.0
 10
7.8197030112
 20
3.9827895358
 30
0.0
 10
7.8068539471
 20
3.9524009356
 30
0.0
 10
7.7960636654
 20
3.9271122564
 30
0.0
 10
7.7873934822
 20
3.9068975817
 30
0.0
 10
7.7808741204
 20
3.8917437572
 30
0.0
 10
7.7743398096
 20
3.8765963743
 30
0.0
 10
7.7656100048
 20
3.8564073775
 30
0.0
 10
7.7590449391
 20
3.8412732955
 30
0.0
 10
7.754661982
 20
3.8311866254
 30
0.0
  0
SPLINE
  5
276
100
AcDbEntity
  8
0
100
AcDbSpline
 62
7
  6
CONTINUOUS
 70
0
 71
3
 72
30
 73
26
 74
0
 42
0.0000001
 43
0.0000001
 44
0.0000000001
 40
0.0
 40
0.0
 40
0.0
 40
0.0
 40
0.0312498082
 40
0.0624997207
 40
0.0937497047
 40
0.124999734
 40
0.1562497846
 40
0.1874998371
 40
0.2031248996
 40
0.2187499444
 40
0.2500000065
 40
0.2812500538
 40
0.3125001084
 40
0.3750000917
 40
0.4375000871
 40
0.4687501096
 40
0.5000001195
 40
0.5312501336
 40
0.5625001418
 40
0.5937501439
 40
0.6250001488
 40
0.6875001376
 40
0.7500001263
 40
0.8750000606
 40
1.0
 40
1.0
 40
1.0
 40
1.0
 10
7.8909777034
 20
4.3298373397
 30
0.0
 10
7.8899202343
 20
4.3334951605
 30
0.0
 10
7.8877279224
 20
4.3407885987
 30
0.0
 10
7.8842491937
 20
4.3516693217
 30
0.0
 10
7.8806138104
 20
4.3624986404
 30
0.0
 10
7.8768488575
 20
4.3732834944
 30
0.0
 10
7.8729760401
 20
4.3840300244
 30
0.0
 10
7.8696735144
 20
4.3929579901
 30
0.0
 10
7.8669932504
 20
4.400086029
 30
0.0
 10
7.8642896812
 20
4.4072052638
 30
0.0
 10
7.8608695878
 20
4.4160888062
 30
0.0
 10
7.856710407
 20
4.426727664
 30
0.0
 10
7.8511011598
 20
4.4408877163
 30
0.0
 10
7.8439873223
 20
4.4585470333
 30
0.0
 10
7.8367699078
 20
4.4761641798
 30
0.0
 10
7.8309474284
 20
4.4902378524
 30
0.0
 10
7.8265591482
 20
4.5007842239
 30
0.0
 10
7.8221515112
 20
4.5113225161
 30
0.0
 10
7.817726794
 20
4.5218536461
 30
0.0
 10
7.8132867193
 20
4.5323783084
 30
0.0
 10
7.8073479449
 20
4.5464032936
 30
0.0
 10
7.7998934016
 20
4.5639213457
 30
0.0
 10
7.7879108582
 20
4.5919266223
 30
0.0
 10
7.7728474664
 20
4.6268966718
 30
0.0
 10
7.7607318185
 20
4.6548446232
 30
0.0
 10
7.754661982
 20
4.6688133746
 30
0.0
  0
SPLINE
  5
277
100
AcDbEntity
  8
02___PRT_ALL_AXES
100
AcDbSpline
 62
7
  6
CONTINUOUS
 70
0
 71
3
 72
37
 73
33
 74
0
 42
0.0000001
 43
0.0000001
 44
0.0000000001
 40
0.0
 40
0.0
 40
0.0
 40
0.0
 40
0.0252908944
 40
0.0508744211
 40
0.0767718562
 40
0.1030054039
 40
0.1565498001
 40
0.1839007716
 40
0.2116526412
 40
0.2398158676
 40
0.268398885
 40
0.2974079217
 40
0.3268473383
 40
0.3567195705
 40
0.3870253312
 40
0.4177636951
 40
0.4489321874
 40
0.4805269977
 40
0.5125429422
 40
0.5449737993
 40
0.5778121785
 40
0.6110498404
 40
0.644677666
 40
0.6786857825
 40
0.7130638419
 40
0.7478007421
 40
0.7828849575
 40
0.8183044029
 40
0.8540469343
 40
0.8901008681
 40
0.9264539616
 40
1.0
 40
1.0
 40
1.0
 40
1.0
 10
5.9849636006
 20
4.3134438722
 30
0.0
 10
5.9811573435
 20
4.314580222
 30
0.0
 10
5.9735487547
 20
4.3170300292
 30
0.0
 10
5.9622292271
 20
4.3211938437
 30
0.0
 10
5.9509457525
 20
4.3258575635
 30
0.0
 10
5.9358550424
 20
4.332775414
 30
0.0
 10
5.9209527254
 20
4.3406230254
 30
0.0
 10
5.9062644937
 20
4.3493131837
 30
0.0
 10
5.8952240905
 20
4.3563277836
 30
0.0
 10
5.8842416046
 20
4.3637821984
 30
0.0
 10
5.8733188325
 20
4.3716660416
 30
0.0
 10
5.8624578341
 20
4.3799688469
 30
0.0
 10
5.8516601694
 20
4.3886798835
 30
0.0
 10
5.8409272709
 20
4.3977884326
 30
0.0
 10
5.8302603044
 20
4.40728363
 30
0.0
 10
5.8196602125
 20
4.4171545139
 30
0.0
 10
5.8091278157
 20
4.4273901401
 30
0.0
 10
5.7986636426
 20
4.4379793863
 30
0.0
 10
5.788268184
 20
4.4489112522
 30
0.0
 10
5.7779416425
 20
4.4601745781
 30
0.0
 10
5.7676841663
 20
4.4717583212
 30
0.0
 10
5.7574957104
 20
4.483651396
 30
0.0
 10
5.7473760944
 20
4.4958427639
 30
0.0
 10
5.7373250386
 20
4.5083214856
 30
0.0
 10
5.7273420913
 20
4.5210766413
 30
0.0
 10
5.717426733
 20
4.5340974386
 30
0.0
 10
5.7075783338
 20
4.5473731201
 30
0.0
 10
5.6977961433
 20
4.5608930623
 30
0.0
 10
5.6880792669
 20
4.5746468806
 30
0.0
 10
5.6784266416
 20
4.5886244382
 30
0.0
 10
5.6655916875
 20
4.6076186126
 30
0.0
 10
5.6561339144
 20
4.6220595042
 30
0.0
 10
5.6498875113
 20
4.6317763162
 30
0.0
  0
SPLINE
  5
278
100
AcDbEntity
  8
02___PRT_ALL_AXES
100
AcDbSpline
 62
7
  6
CONTINUOUS
 70
0
 71
3
 72
48
 73
44
 74
0
 42
0.0000001
 43
0.0000001
 44
0.0000000001
 40
0.0
 40
0.0
 40
0.0
 40
0.0
 40
0.0677225938
 40
0.1352869972
 40
0.2026559637
 40
0.2697831909
 40
0.3366110347
 40
0.4030674015
 40
0.4361290162
 40
0.4690609776
 40
0.5018476559
 40
0.5344711797
 40
0.5669107495
 40
0.5991433979
 40
0.631141468
 40
0.6628741826
 40
0.6786296805
 40
0.694304908
 40
0.7253909339
 40
0.7407896151
 40
0.7560829503
 40
0.7712629008
 40
0.7863214509
 40
0.8012496297
 40
0.8160371274
 40
0.8306735794
 40
0.8451470249
 40
0.8594443888
 40
0.8735520084
 40
0.8874539397
 40
0.9011337872
 40
0.9145727663
 40
0.9277510835
 40
0.9406466849
 40
0.9469812991
 40
0.9532363489
 40
0.9654940233
 40
0.9714902657
 40
0.9773933026
 40
0.9831994279
 40
0.9889050885
 40
0.9945065715
 40
1.0
 40
1.0
 40
1.0
 40
1.0
 10
5.6000743097
 20
4.6703107268
 30
0.0
 10
5.578366348
 20
4.6766100388
 30
0.0
 10
5.5351091644
 20
4.6895698613
 30
0.0
 10
5.4706625352
 20
4.7101173739
 30
0.0
 10
5.4067803035
 20
4.7317466944
 30
0.0
 10
5.3435330258
 20
4.754450579
 30
0.0
 10
5.2810043926
 20
4.7782207073
 30
0.0
 10
5.2294924518
 20
4.7989446372
 30
0.0
 10
5.1887318247
 20
4.8160591598
 30
0.0
 10
5.1584651609
 20
4.8291341119
 30
0.0
 10
5.1284713749
 20
4.8424674435
 30
0.0
 10
5.0987732724
 20
4.8560567396
 30
0.0
 10
5.0693967541
 20
4.8698995951
 30
0.0
 10
5.0403710876
 20
4.883992301
 30
0.0
 10
5.0117299716
 20
4.8983315278
 30
0.0
 10
4.9881598274
 20
4.9105102808
 30
0.0
 10
4.9695295512
 20
4.9203774417
 30
0.0
 10
4.9511583381
 20
4.9302714395
 30
0.0
 10
4.9329979591
 20
4.9403049031
 30
0.0
 10
4.9150665607
 20
4.9504848331
 30
0.0
 10
4.9018128979
 20
4.9581501339
 30
0.0
 10
4.8887215969
 20
4.9658683585
 30
0.0
 10
4.8758026011
 20
4.9736377691
 30
0.0
 10
4.8630668157
 20
4.9814564862
 30
0.0
 10
4.8505263257
 20
4.9893227695
 30
0.0
 10
4.8381940685
 20
4.9972340227
 30
0.0
 10
4.8260843652
 20
5.0051877333
 30
0.0
 10
4.8142129545
 20
5.0131810869
 30
0.0
 10
4.8025968733
 20
5.0212103097
 30
0.0
 10
4.7912551627
 20
5.0292719779
 30
0.0
 10
4.7802084405
 20
5.0373612019
 30
0.0
 10
4.7694796275
 20
5.045473246
 30
0.0
 10
4.759093797
 20
5.0536019673
 30
0.0
 10
4.7506987188
 20
5.0604242037
 30
0.0
 10
4.7441800281
 20
5.0658889107
 30
0.0
 10
4.7378817441
 20
5.0712843143
 30
0.0
 10
4.7317586989
 20
5.076710182
 30
0.0
 10
4.7258269682
 20
5.0821714733
 30
0.0
 10
4.7215334017
 20
5.0862321701
 30
0.0
 10
4.7173676773
 20
5.0902860488
 30
0.0
 10
4.7133350566
 20
5.0943314901
 30
0.0
 10
4.7094410895
 20
5.0983667496
 30
0.0
 10
4.7069162473
 20
5.1010759737
 30
0.0
 10
4.7056789051
 20
5.1024290334
 30
0.0
  0
SPLINE
  5
279
100
AcDbEntity
  8
02___PRT_ALL_AXES
100
AcDbSpline
 62
7
  6
CONTINUOUS
 70
0
 71
3
 72
16
 73
12
 74
0
 42
0.0000001
 43
0.0000001
 44
0.0000000001
 40
0.0
 40
0.0
 40
0.0
 40
0.0
 40
0.1192360653
 40
0.2408859504
 40
0.3646324672
 40
0.4901227731
 40
0.6169511682
 40
0.7446267586
 40
0.8086177863
 40
0.8725828288
 40
1.0
 40
1.0
 40
1.0
 40
1.0
 10
5.6498875113
 20
4.6317763162
 30
0.0
 10
5.6485059251
 20
4.6339254912
 30
0.0
 10
5.6455376312
 20
4.6381561076
 30
0.0
 10
5.6405521469
 20
4.6441821803
 30
0.0
 10
5.635005654
 20
4.6498861307
 30
0.0
 10
5.6289233494
 20
4.6551865271
 30
0.0
 10
5.6223386217
 20
4.6599936024
 30
0.0
 10
5.6164738967
 20
4.6635050317
 30
0.0
 10
5.6115801884
 20
4.6659705368
 30
0.0
 10
5.6065744282
 20
4.6681846241
 30
0.0
 10
5.6026963866
 20
4.6695498409
 30
0.0
 10
5.6000743097
 20
4.6703107268
 30
0.0
  0
SPLINE
  5
27A
100
AcDbEntity
  8
02___PRT_ALL_AXES
100
AcDbSpline
 62
7
  6
CONTINUOUS
 70
0
 71
3
 72
89
 73
85
 74
0
 42
0.0000001
 43
0.0000001
 44
0.0000000001
 40
0.0
 40
0.0
 40
0.0
 40
0.0
 40
0.0065494997
 40
0.0129848834
 40
0.0193030855
 40
0.0255012422
 40
0.0315767541
 40
0.0375270758
 40
0.0433498373
 40
0.0490430806
 40
0.0546052093
 40
0.0600349611
 40
0.0653316642
 40
0.0704953077
 40
0.075526557
 40
0.0804269439
 40
0.0851990072
 40
0.0898464046
 40
0.0943740189
 40
0.0987881361
 40
0.1030965847
 40
0.1073087303
 40
0.1114356307
 40
0.1154900211
 40
0.1194861656
 40
0.1234398276
 40
0.1273679525
 40
0.1312883872
 40
0.1352195096
 40
0.139179796
 40
0.1431874457
 40
0.1472598784
 40
0.1514135433
 40
0.1556635103
 40
0.1600232985
 40
0.1645049051
 40
0.1691184951
 40
0.1738726599
 40
0.1787744069
 40
0.183829117
 40
0.1890409019
 40
0.1944125415
 40
0.1999456441
 40
0.2056408857
 40
0.2114979992
 40
0.2175159437
 40
0.2236930476
 40
0.2300270892
 40
0.2365153488
 40
0.2431547166
 40
0.2499418491
 40
0.2568730916
 40
0.2639445511
 40
0.2711523457
 40
0.2784924358
 40
0.285960607
 40
0.3012646825
 40
0.3170319334
 40
0.3332303201
 40
0.3498285896
 40
0.366797501
 40
0.3841087819
 40
0.4017365904
 40
0.4196560434
 40
0.4378446351
 40
0.4562809192
 40
0.4749452772
 40
0.4938195991
 40
0.5128866357
 40
0.5321311667
 40
0.5515382767
 40
0.5907879324
 40
0.6305389022
 40
0.6505760491
 40
0.6707079247
 40
0.7112223416
 40
0.7520183902
 40
0.7725046123
 40
0.7930408124
 40
0.8342400856
 40
0.8548920913
 40
0.8755721675
 40
0.916999197
 40
1.0
 40
1.0
 40
1.0
 40
1.0
 10
4.7056789051
 20
5.1024290334
 30
0.0
 10
4.7046835671
 20
5.1035174564
 30
0.0
 10
4.7027265666
 20
5.1056903528
 30
0.0
 10
4.6998701712
 20
5.1089673409
 30
0.0
 10
4.6971217366
 20
5.1122326744
 30
0.0
 10
4.694484866
 20
5.1154850878
 30
0.0
 10
4.6919631915
 20
5.1187232661
 30
0.0
 10
4.6895604444
 20
5.1219458344
 30
0.0
 10
4.6872804444
 20
5.1251513578
 30
0.0
 10
4.68512705
 20
5.1283383465
 30
0.0
 10
4.6831041518
 20
5.1315052492
 30
0.0
 10
4.6812156679
 20
5.1346504472
 30
0.0
 10
4.6794655576
 20
5.1377722836
 30
0.0
 10
4.6778577893
 20
5.140869064
 30
0.0
 10
4.6763962298
 20
5.1439390028
 30
0.0
 10
4.6750847798
 20
5.1469803085
 30
0.0
 10
4.6739273355
 20
5.1499911775
 30
0.0
 10
4.6729275195
 20
5.1529696996
 30
0.0
 10
4.6720890006
 20
5.1559140009
 30
0.0
 10
4.6714153882
 20
5.1588221936
 30
0.0
 10
4.6709098181
 20
5.1616922986
 30
0.0
 10
4.6705755554
 20
5.1645223997
 30
0.0
 10
4.6704155866
 20
5.1673105257
 30
0.0
 10
4.6704323016
 20
5.1700546933
 30
0.0
 10
4.6706283167
 20
5.1727529281
 30
0.0
 10
4.67100549
 20
5.1754032402
 30
0.0
 10
4.6715652381
 20
5.1780037338
 30
0.0
 10
4.6723090572
 20
5.1805524352
 30
0.0
 10
4.6732372605
 20
5.1830476469
 30
0.0
 10
4.6743501622
 20
5.1854877084
 30
0.0
 10
4.6756476353
 20
5.1878710415
 30
0.0
 10
4.6771286082
 20
5.190196569
 30
0.0
 10
4.6787922236
 20
5.192463044
 30
0.0
 10
4.6806367749
 20
5.1946696983
 30
0.0
 10
4.6826602386
 20
5.1968160085
 30
0.0
 10
4.6848605623
 20
5.1989013071
 30
0.0
 10
4.687234912
 20
5.2009255918
 30
0.0
 10
4.6897804892
 20
5.2028886927
 30
0.0
 10
4.6924941601
 20
5.2047906235
 30
0.0
 10
4.6953723693
 20
5.2066318297
 30
0.0
 10
4.6984115834
 20
5.2084125136
 30
0.0
 10
4.7016079084
 20
5.2101332655
 30
0.0
 10
4.7049572914
 20
5.2117948131
 30
0.0
 10
4.7084556481
 20
5.2133977706
 30
0.0
 10
4.7120986634
 20
5.2149431126
 30
0.0
 10
4.7158819848
 20
5.2164318145
 30
0.0
 10
4.7198012445
 20
5.2178648438
 30
0.0
 10
4.7238519865
 20
5.2192434036
 30
0.0
 10
4.728029774
 20
5.2205686872
 30
0.0
 10
4.7323302052
 20
5.2218419064
 30
0.0
 10
4.7367488937
 20
5.2230643912
 30
0.0
 10
4.7412815059
 20
5.2242374819
 30
0.0
 10
4.7459237864
 20
5.225362537
 30
0.0
 10
4.7506715664
 20
5.2264409357
 30
0.0
 10
4.755520764
 20
5.2274740877
 30
0.0
 10
4.7621703584
 20
5.2288039845
 30
0.0
 10
4.7707101892
 20
5.2303556531
 30
0.0
 10
4.7812207747
 20
5.2320450482
 30
0.0
 10
4.7920483296
 20
5.2335872991
 30
0.0
 10
4.8031671408
 20
5.2349931275
 30
0.0
 10
4.814553379
 20
5.2362723489
 30
0.0
 10
4.8261850815
 20
5.2374348803
 30
0.0
 10
4.8380419315
 20
5.2384894884
 30
0.0
 10
4.8501053244
 20
5.2394450935
 30
0.0
 10
4.8623580902
 20
5.2403094464
 30
0.0
 10
4.8747845176
 20
5.2410903008
 30
0.0
 10
4.8873701652
 20
5.2417946104
 30
0.0
 10
4.9001017435
 20
5.2424288039
 30
0.0
 10
4.9129671051
 20
5.2429992492
 30
0.0
 10
4.9259549933
 20
5.2435111713
 30
0.0
 10
4.9434872227
 20
5.2441253966
 30
0.0
 10
4.9656389141
 20
5.2447704356
 30
0.0
 10
4.9879359608
 20
5.2452800987
 30
0.0
 10
5.0059302387
 20
5.2456233471
 30
0.0
 10
5.0240971434
 20
5.2459290372
 30
0.0
 10
5.0469392831
 20
5.2462437422
 30
0.0
 10
5.0698620834
 20
5.2464859682
 30
0.0
 10
5.0882864692
 20
5.246644624
 30
0.0
 10
5.1068018273
 20
5.2467826885
 30
0.0
 10
5.1253547224
 20
5.2468918288
 30
0.0
 10
5.1439401289
 20
5.2469775093
 30
0.0
 10
5.1625768856
 20
5.2470491404
 30
0.0
 10
5.1952542635
 20
5.2471397279
 30
0.0
 10
5.2232747357
 20
5.2471674826
 30
0.0
 10
5.2419660557
 20
5.2471674826
 30
0.0
  0
SPLINE
  5
27B
100
AcDbEntity
  8
02___PRT_ALL_AXES
100
AcDbSpline
 62
7
  6
CONTINUOUS
 70
0
 71
3
 72
15
 73
11
 74
0
 42
0.0000001
 43
0.0000001
 44
0.0000000001
 40
0.0
 40
0.0
 40
0.0
 40
0.0
 40
0.1250007615
 40
0.2500017757
 40
0.3750017607
 40
0.5000017258
 40
0.6250019184
 40
0.7500025061
 40
0.8750032214
 40
1.0
 40
1.0
 40
1.0
 40
1.0
 10
6.7309310085
 20
4.2187953088
 30
0.0
 10
6.7079970417
 20
4.2187953088
 30
0.0
 10
6.6621270239
 20
4.2193640243
 30
0.0
 10
6.5933661412
 20
4.2219246746
 30
0.0
 10
6.5246900245
 20
4.2261973646
 30
0.0
 10
6.4561426657
 20
4.2321892364
 30
0.0
 10
6.3877682467
 20
4.2399102747
 30
0.0
 10
6.3196126085
 20
4.2493730528
 30
0.0
 10
6.2517250162
 20
4.2605927937
 30
0.0
 10
6.2066770748
 20
4.2692567775
 30
0.0
 10
6.1842164069
 20
4.2738883767
 30
0.0
  0
SPLINE
  5
27C
100
AcDbEntity
  8
02___PRT_ALL_AXES
100
AcDbSpline
 62
7
  6
CONTINUOUS
 70
0
 71
3
 72
23
 73
19
 74
0
 42
0.0000001
 43
0.0000001
 44
0.0000000001
 40
0.0
 40
0.0
 40
0.0
 40
0.0
 40
0.0624749225
 40
0.1249402582
 40
0.187396565
 40
0.2498538252
 40
0.3123167737
 40
0.3747907363
 40
0.4372789026
 40
0.4997824924
 40
0.562300849
 40
0.6248314378
 40
0.6873700237
 40
0.7499112088
 40
0.812449777
 40
0.8749792205
 40
0.9374984407
 40
1.0
 40
1.0
 40
1.0
 40
1.0
 10
5.9849636006
 20
4.7768522129
 30
0.0
 10
5.987849177
 20
4.7729949185
 30
0.0
 10
5.9938410939
 20
4.765443586
 30
0.0
 10
6.0034576569
 20
4.7546490653
 30
0.0
 10
6.0136736761
 20
4.7444212472
 30
0.0
 10
6.0244573328
 20
4.7347941922
 30
0.0
 10
6.0357764035
 20
4.725800408
 30
0.0
 10
6.0475964412
 20
4.7174717289
 30
0.0
 10
6.0598811156
 20
4.7098389042
 30
0.0
 10
6.072591776
 20
4.7029313832
 30
0.0
 10
6.0856873413
 20
4.6967768711
 30
0.0
 10
6.0991242382
 20
4.6914008073
 30
0.0
 10
6.1128564765
 20
4.6868258054
 30
0.0
 10
6.1268359479
 20
4.6830709643
 30
0.0
 10
6.1410127082
 20
4.6801515381
 30
0.0
 10
6.1553361118
 20
4.6780782321
 30
0.0
 10
6.1697538279
 20
4.6768577492
 30
0.0
 10
6.1793972104
 20
4.6766138252
 30
0.0
 10
6.1842164069
 20
4.67663404
 30
0.0
  0
SPLINE
  5
27D
100
AcDbEntity
  8
02___PRT_ALL_AXES
100
AcDbSpline
 62
7
  6
CONTINUOUS
 70
0
 71
3
 72
29
 73
25
 74
0
 42
0.0000001
 43
0.0000001
 44
0.0000000001
 40
0.0
 40
0.0
 40
0.0
 40
0.0
 40
0.0709611181
 40
0.1417651159
 40
0.2121977358
 40
0.2820514176
 40
0.3511100003
 40
0.4191578485
 40
0.4859799148
 40
0.5513642128
 40
0.615104239
 40
0.6770010005
 40
0.7071985873
 40
0.7368652264
 40
0.7659791396
 40
0.7945191318
 40
0.82246541
 40
0.8497987751
 40
0.8765010966
 40
0.9025553194
 40
0.927945436
 40
0.9526578885
 40
0.9766802864
 40
1.0
 40
1.0
 40
1.0
 40
1.0
 10
6.1842164069
 20
4.2738883767
 30
0.0
 10
6.179618016
 20
4.2748366077
 30
0.0
 10
6.1704265751
 20
4.2767075855
 30
0.0
 10
6.1566544458
 20
4.2794376502
 30
0.0
 10
6.142940886
 20
4.2820854489
 30
0.0
 10
6.1293287847
 20
4.2846487186
 30
0.0
 10
6.1158616468
 20
4.2871284837
 30
0.0
 10
6.1025839679
 20
4.2895290364
 30
0.0
 10
6.0895404219
 20
4.2918578979
 30
0.0
 10
6.0767754909
 20
4.2941255455
 30
0.0
 10
6.0643330209
 20
4.2963452053
 30
0.0
 10
6.0541872499
 20
4.298182605
 30
0.0
 10
6.0462652457
 20
4.2996475881
 30
0.0
 10
6.0404794963
 20
4.3007360662
 30
0.0
 10
6.0348056115
 20
4.301825761
 30
0.0
 10
6.0292483979
 20
4.3029191554
 30
0.0
 10
6.0238125605
 20
4.3040188276
 30
0.0
 10
6.0185026694
 20
4.3051273817
 30
0.0
 10
6.013323191
 20
4.3062474271
 30
0.0
 10
6.0082784725
 20
4.3073815795
 30
0.0
 10
6.0033726778
 20
4.3085325041
 30
0.0
 10
5.9986097673
 20
4.3097027976
 30
0.0
 10
5.9939936562
 20
4.3108950909
 30
0.0
 10
5.9909713396
 20
4.3117186449
 30
0.0
 10
5.9894857669
 20
4.3121354931
 30
0.0
  0
SPLINE
  5
27E
100
AcDbEntity
  8
02___PRT_ALL_AXES
100
AcDbSpline
 62
7
  6
CONTINUOUS
 70
0
 71
3
 72
15
 73
11
 74
0
 42
0.0000001
 43
0.0000001
 44
0.0000000001
 40
0.0
 40
0.0
 40
0.0
 40
0.0
 40
0.1249481386
 40
0.2499314496
 40
0.374932718
 40
0.4999423771
 40
0.6249555719
 40
0.749970071
 40
0.8749849826
 40
1.0
 40
1.0
 40
1.0
 40
1.0
 10
6.1842164069
 20
4.67663404
 30
0.0
 10
6.2069865595
 20
4.6767295526
 30
0.0
 10
6.2525334345
 20
4.6768831047
 30
0.0
 10
6.3208604256
 20
4.6770347216
 30
0.0
 10
6.389198725
 20
4.6771313203
 30
0.0
 10
6.4575425101
 20
4.6771901044
 30
0.0
 10
6.5258887222
 20
4.6772237201
 30
0.0
 10
6.5942358969
 20
4.6772413921
 30
0.0
 10
6.6625834053
 20
4.6772494874
 30
0.0
 10
6.7081484677
 20
4.677251009
 30
0.0
 10
6.7309310085
 20
4.677251009
 30
0.0
  0
SPLINE
  5
27F
100
AcDbEntity
  8
0
100
AcDbSpline
 62
7
  6
CONTINUOUS
 70
0
 71
3
 72
12
 73
8
 74
0
 42
0.0000001
 43
0.0000001
 44
0.0000000001
 40
0.0
 40
0.0
 40
0.0
 40
0.0
 40
0.2499984998
 40
0.4999984326
 40
0.6249994756
 40
0.75000099
 40
1.0
 40
1.0
 40
1.0
 40
1.0
 10
0.55
 20
3.971713808
 30
0.0
 10
0.5545697948
 20
3.9662310704
 30
0.0
 10
0.5638320278
 20
3.9553672646
 30
0.0
 10
0.5756824501
 20
3.942025341
 30
0.0
 10
0.5853094697
 20
3.9314847727
 30
0.0
 10
0.595029049
 20
3.9210295729
 30
0.0
 10
0.6024178119
 20
3.9132807798
 30
0.0
 10
0.6073830551
 20
3.9081534019
 30
0.0
  0
SPLINE
  5
280
100
AcDbEntity
  8
02___PRT_ALL_AXES
100
AcDbSpline
 62
7
  6
CONTINUOUS
 70
0
 71
3
 72
31
 73
27
 74
0
 42
0.0000001
 43
0.0000001
 44
0.0000000001
 40
0.0
 40
0.0
 40
0.0
 40
0.0
 40
0.0505070505
 40
0.1023012157
 40
0.1554891064
 40
0.182638425
 40
0.210171148
 40
0.2664170516
 40
0.2951509754
 40
0.3243000866
 40
0.3838603428
 40
0.4451419864
 40
0.476438968
 40
0.5081762682
 40
0.5403561929
 40
0.5729798501
 40
0.6060494875
 40
0.6395673751
 40
0.7079464733
 40
0.7428189118
 40
0.778147358
 40
0.813935697
 40
0.8501896534
 40
0.9241129458
 40
0.961808593
 40
1.0
 40
1.0
 40
1.0
 40
1.0
 10
7.754661982
 20
4.2187953088
 30
0.0
 10
7.7569811881
 20
4.2197913098
 30
0.0
 10
7.7616160828
 20
4.2219576919
 30
0.0
 10
7.7684495674
 20
4.225665289
 30
0.0
 10
7.7740666906
 20
4.2291436811
 30
0.0
 10
7.7785300742
 20
4.2321675017
 30
0.0
 10
7.7830345534
 20
4.2353995578
 30
0.0
 10
7.7874706488
 20
4.2388592731
 30
0.0
 10
7.7918316092
 20
4.2425357781
 30
0.0
 10
7.7962226223
 20
4.2464308973
 30
0.0
 10
7.8016412182
 20
4.2516146824
 30
0.0
 10
7.8068747032
 20
4.2571340846
 30
0.0
 10
7.8109842423
 20
4.2617938706
 30
0.0
 10
7.8140446429
 20
4.2654379369
 30
0.0
 10
7.8170572488
 20
4.269206856
 30
0.0
 10
7.8200170598
 20
4.2731013552
 30
0.0
 10
7.8229191274
 20
4.2771219018
 30
0.0
 10
7.8267295831
 20
4.2826878494
 30
0.0
 10
7.8303733179
 20
4.2884748286
 30
0.0
 10
7.8338302757
 20
4.2944764159
 30
0.0
 10
7.8363485608
 20
4.2991369457
 30
0.0
 10
7.8387667377
 20
4.3039277374
 30
0.0
 10
7.8418655496
 20
4.3105320737
 30
0.0
 10
7.8447029246
 20
4.3173615069
 30
0.0
 10
7.8472456127
 20
4.3244040924
 30
0.0
 10
7.8484161206
 20
4.3280122298
 30
0.0
 10
7.8489744984
 20
4.329837294
 30
0.0
  0
SPLINE
  5
281
100
AcDbEntity
  8
0
100
AcDbSpline
 62
7
  6
CONTINUOUS
 70
0
 71
3
 72
12
 73
8
 74
0
 42
0.0000001
 43
0.0000001
 44
0.0000000001
 40
0.0
 40
0.0
 40
0.0
 40
0.0
 40
0.2499990194
 40
0.3750005406
 40
0.5000015887
 40
0.7500015094
 40
1.0
 40
1.0
 40
1.0
 40
1.0
 10
0.6073830551
 20
4.5918465981
 30
0.0
 10
0.6024178117
 20
4.58671922
 30
0.0
 10
0.5950290482
 20
4.5789704269
 30
0.0
 10
0.5853094689
 20
4.5685152262
 30
0.0
 10
0.5756824492
 20
4.5579746581
 30
0.0
 10
0.5638320275
 20
4.5446327346
 30
0.0
 10
0.5545697946
 20
4.5337689294
 30
0.0
 10
0.55
 20
4.528286192
 30
0.0
  0
LINE
  5
282
100
AcDbEntity
  8
02___PRT_ALL_AXES
100
AcDbLine
 62
7
  6
CONTINUOUS
 10
5.6498875113
 20
5.2223111355
 11
5.9453380093
 21
4.8296813405
  0
SPLINE
  5
283
100
AcDbEntity
  8
0
100
AcDbSpline
 62
7
  6
CONTINUOUS
 70
0
 71
3
 72
34
 73
30
 74
0
 42
0.0000001
 43
0.0000001
 44
0.0000000001
 40
0.0
 40
0.0
 40
0.0
 40
0.0
 40
0.0624924482
 40
0.124984498
 40
0.1874729188
 40
0.21872564
 40
0.2499778834
 40
0.2812305018
 40
0.3124827009
 40
0.3437351648
 40
0.3749873609
 40
0.4062397503
 40
0.4374920709
 40
0.4687443499
 40
0.4999965883
 40
0.5312487973
 40
0.5625011644
 40
0.578128906
 40
0.5937565489
 40
0.6250090452
 40
0.6562612031
 40
0.6875136778
 40
0.7187659858
 40
0.7500184703
 40
0.7812708945
 40
0.8125234806
 40
0.8750131532
 40
0.9375067776
 40
1.0
 40
1.0
 40
1.0
 40
1.0
 10
0.7286802337
 20
3.9047328581
 30
0.0
 10
0.7266196896
 20
3.9027711896
 30
0.0
 10
0.7223528483
 20
3.8989969928
 30
0.0
 10
0.7155210663
 20
3.8938660487
 30
0.0
 10
0.7094740355
 20
3.890100711
 30
0.0
 10
0.7044410131
 20
3.8874417111
 30
0.0
 10
0.7005722065
 20
3.8856342699
 30
0.0
 10
0.6966166291
 20
3.8840255363
 30
0.0
 10
0.6925822014
 20
3.8826257964
 30
0.0
 10
0.6884781696
 20
3.8814453217
 30
0.0
 10
0.6843152366
 20
3.8804927183
 30
0.0
 10
0.6801052606
 20
3.8797756313
 30
0.0
 10
0.6758611594
 20
3.879300007
 30
0.0
 10
0.6715966823
 20
3.8790696166
 30
0.0
 10
0.667325998
 20
3.8790868099
 30
0.0
 10
0.6630635396
 20
3.8793510477
 30
0.0
 10
0.659529825
 20
3.8797755318
 30
0.0
 10
0.656721192
 20
3.8802353039
 30
0.0
 10
0.6539266964
 20
3.8807744238
 30
0.0
 10
0.6504635363
 20
3.8815947873
 30
0.0
 10
0.6463685918
 20
3.8828062204
 30
0.0
 10
0.6423444749
 20
3.8842352632
 30
0.0
 10
0.6384004729
 20
3.8858722018
 30
0.0
 10
0.6345442178
 20
3.8877059998
 30
0.0
 10
0.6307820528
 20
3.8897257387
 30
0.0
 10
0.6258988929
 20
3.892650681
 30
0.0
 10
0.6200504226
 20
3.8967161049
 30
0.0
 10
0.6134645785
 20
3.9021580113
 30
0.0
 10
0.6093622206
 20
3.9061096088
 30
0.0
 10
0.6073830551
 20
3.9081534019
 30
0.0
  0
SPLINE
  5
284
100
AcDbEntity
  8
0
100
AcDbSpline
 62
7
  6
CONTINUOUS
 70
0
 71
3
 72
34
 73
30
 74
0
 42
0.0000001
 43
0.0000001
 44
0.0000000001
 40
0.0
 40
0.0
 40
0.0
 40
0.0
 40
0.0624932224
 40
0.1249868468
 40
0.1874765194
 40
0.2187291055
 40
0.2499815297
 40
0.2812340142
 40
0.3124863222
 40
0.3437387969
 40
0.3749909548
 40
0.4062434511
 40
0.421871094
 40
0.4374988356
 40
0.4687512027
 40
0.5000034117
 40
0.5312556501
 40
0.5625079291
 40
0.5937602497
 40
0.6250126391
 40
0.6562648352
 40
0.6875172991
 40
0.7187694982
 40
0.7500221166
 40
0.78127436
 40
0.8125270812
 40
0.875015502
 40
0.9375075518
 40
1.0
 40
1.0
 40
1.0
 40
1.0
 10
0.6073830551
 20
4.5918465981
 30
0.0
 10
0.6093622206
 20
4.5938903912
 30
0.0
 10
0.6134645785
 20
4.5978419887
 30
0.0
 10
0.6200504226
 20
4.6032838951
 30
0.0
 10
0.6258988929
 20
4.607349319
 30
0.0
 10
0.6307820528
 20
4.6102742613
 30
0.0
 10
0.6345442178
 20
4.6122940002
 30
0.0
 10
0.6384004729
 20
4.6141277982
 30
0.0
 10
0.6423444749
 20
4.6157647368
 30
0.0
 10
0.6463685918
 20
4.6171937796
 30
0.0
 10
0.6504635363
 20
4.6184052127
 30
0.0
 10
0.6539266964
 20
4.6192255762
 30
0.0
 10
0.656721192
 20
4.6197646961
 30
0.0
 10
0.659529825
 20
4.6202244682
 30
0.0
 10
0.6630635396
 20
4.6206489523
 30
0.0
 10
0.667325998
 20
4.6209131901
 30
0.0
 10
0.6715966823
 20
4.6209303834
 30
0.0
 10
0.6758611594
 20
4.620699993
 30
0.0
 10
0.6801052606
 20
4.6202243687
 30
0.0
 10
0.6843152366
 20
4.6195072817
 30
0.0
 10
0.6884781696
 20
4.6185546783
 30
0.0
 10
0.6925822014
 20
4.6173742036
 30
0.0
 10
0.6966166291
 20
4.6159744637
 30
0.0
 10
0.7005722065
 20
4.6143657301
 30
0.0
 10
0.7044410131
 20
4.6125582889
 30
0.0
 10
0.7094740355
 20
4.609899289
 30
0.0
 10
0.7155210663
 20
4.6061339513
 30
0.0
 10
0.7223528483
 20
4.6010030072
 30
0.0
 10
0.7266196896
 20
4.5972288104
 30
0.0
 10
0.7286802337
 20
4.5952671419
 30
0.0
  0
SPLINE
  5
285
100
AcDbEntity
  8
0
100
AcDbSpline
 62
7
  6
CONTINUOUS
 70
0
 71
3
 72
22
 73
18
 74
0
 42
0.0000001
 43
0.0000001
 44
0.0000000001
 40
0.0
 40
0.0
 40
0.0
 40
0.0
 40
0.1249798804
 40
0.2499524886
 40
0.3124574272
 40
0.3749612493
 40
0.437465538
 40
0.4999690317
 40
0.5624716115
 40
0.6249748725
 40
0.6874772383
 40
0.7499794475
 40
0.812481723
 40
0.8749817946
 40
0.9062400707
 40
0.9375010121
 40
1.0
 40
1.0
 40
1.0
 40
1.0
 10
0.7286802337
 20
4.5952671419
 30
0.0
 10
0.7299446539
 20
4.5940633951
 30
0.0
 10
0.7325699643
 20
4.5917546737
 30
0.0
 10
0.7361005942
 20
4.5891760968
 30
0.0
 10
0.7390736419
 20
4.5873417739
 30
0.0
 10
0.7413772187
 20
4.586092
 30
0.0
 10
0.743751188
 20
4.584981419
 30
0.0
 10
0.7461909173
 20
4.5840233469
 30
0.0
 10
0.7486895069
 20
4.583230735
 30
0.0
 10
0.751237867
 20
4.5826159177
 30
0.0
 10
0.7538245379
 20
4.5821892518
 30
0.0
 10
0.7564360975
 20
4.5819584643
 30
0.0
 10
0.7590576085
 20
4.5819280468
 30
0.0
 10
0.7612379974
 20
4.5820702852
 30
0.0
 10
0.7629717333
 20
4.5822827126
 30
0.0
 10
0.7646961912
 20
4.5825600745
 30
0.0
 10
0.765977253
 20
4.5828396113
 30
0.0
 10
0.766823008
 20
4.5830560838
 30
0.0
  0
SPLINE
  5
286
100
AcDbEntity
  8
0
100
AcDbSpline
 62
7
  6
CONTINUOUS
 70
0
 71
3
 72
22
 73
18
 74
0
 42
0.0000001
 43
0.0000001
 44
0.0000000001
 40
0.0
 40
0.0
 40
0.0
 40
0.0
 40
0.0624989879
 40
0.0937599293
 40
0.1250182054
 40
0.187518277
 40
0.2500205525
 40
0.3125227617
 40
0.3750251275
 40
0.4375283885
 40
0.5000309683
 40
0.562534462
 40
0.6250387507
 40
0.6875425728
 40
0.7500475114
 40
0.8750201196
 40
1.0
 40
1.0
 40
1.0
 40
1.0
 10
0.766823008
 20
3.9169439162
 30
0.0
 10
0.765977253
 20
3.9171603887
 30
0.0
 10
0.7646961912
 20
3.9174399255
 30
0.0
 10
0.7629717333
 20
3.9177172874
 30
0.0
 10
0.7612379974
 20
3.9179297148
 30
0.0
 10
0.7590576085
 20
3.9180719532
 30
0.0
 10
0.7564360975
 20
3.9180415357
 30
0.0
 10
0.7538245379
 20
3.9178107482
 30
0.0
 10
0.751237867
 20
3.9173840823
 30
0.0
 10
0.7486895069
 20
3.916769265
 30
0.0
 10
0.7461909173
 20
3.9159766531
 30
0.0
 10
0.743751188
 20
3.915018581
 30
0.0
 10
0.7413772187
 20
3.913908
 30
0.0
 10
0.7390736419
 20
3.9126582261
 30
0.0
 10
0.7361005942
 20
3.9108239032
 30
0.0
 10
0.7325699643
 20
3.9082453263
 30
0.0
 10
0.7299446539
 20
3.9059366049
 30
0.0
 10
0.7286802337
 20
3.9047328581
 30
0.0
  0
SPLINE
  5
287
100
AcDbEntity
  8
02___PRT_ALL_AXES
100
AcDbSpline
 62
7
  6
CONTINUOUS
 70
0
 71
3
 72
30
 73
26
 74
0
 42
0.0000001
 43
0.0000001
 44
0.0000000001
 40
0.0
 40
0.0
 40
0.0
 40
0.0
 40
0.0867401513
 40
0.1711740473
 40
0.253099212
 40
0.3323313217
 40
0.4086761632
 40
0.4819237925
 40
0.5518560853
 40
0.6182511237
 40
0.6808811676
 40
0.7107162308
 40
0.7395271604
 40
0.7672887392
 40
0.7939772139
 40
0.8195711092
 40
0.8440527273
 40
0.8674086774
 40
0.8896310826
 40
0.9107195486
 40
0.9306841437
 40
0.9495475909
 40
0.9673474553
 40
0.9841391177
 40
1.0
 40
1.0
 40
1.0
 40
1.0
 10
10.3471479444
 20
3.8682236838
 30
0.0
 10
10.3476737251
 20
3.8671740653
 30
0.0
 10
10.3486905877
 20
3.8650922713
 30
0.0
 10
10.350129526
 20
3.8619834337
 30
0.0
 10
10.3514599961
 20
3.8589371917
 30
0.0
 10
10.3526791505
 20
3.8559626885
 30
0.0
 10
10.3537840128
 20
3.8530692126
 30
0.0
 10
10.3547712191
 20
3.850266579
 30
0.0
 10
10.3556370727
 20
3.8475651215
 30
0.0
 10
10.3563775778
 20
3.8449757531
 30
0.0
 10
10.3568947433
 20
3.8428882491
 30
0.0
 10
10.3572392751
 20
3.8412833465
 30
0.0
 10
10.3574591121
 20
3.8401346425
 30
0.0
 10
10.3576439938
 20
3.8390229339
 30
0.0
 10
10.3577932795
 20
3.8379498108
 30
0.0
 10
10.3579063228
 20
3.836916889
 30
0.0
 10
10.3579824723
 20
3.8359257946
 30
0.0
 10
10.3580210849
 20
3.8349781594
 30
0.0
 10
10.3580215228
 20
3.8340756157
 30
0.0
 10
10.357983132
 20
3.8332197744
 30
0.0
 10
10.3579052687
 20
3.8324122041
 30
0.0
 10
10.3577873037
 20
3.8316544378
 30
0.0
 10
10.3576285307
 20
3.8309479733
 30
0.0
 10
10.357428406
 20
3.8302944088
 30
0.0
 10
10.3572625541
 20
3.8298839677
 30
0.0
 10
10.3571721456
 20
3.8296892732
 30
0.0
  0
SPLINE
  5
288
100
AcDbEntity
  8
02___PRT_ALL_AXES
100
AcDbSpline
 62
7
  6
CONTINUOUS
 70
0
 71
3
 72
45
 73
41
 74
0
 42
0.0000001
 43
0.0000001
 44
0.0000000001
 40
0.0
 40
0.0
 40
0.0
 40
0.0
 40
0.1124690156
 40
0.2197114954
 40
0.3213612029
 40
0.4170752434
 40
0.5065088113
 40
0.5893290345
 40
0.6652143182
 40
0.7004604475
 40
0.7338599523
 40
0.7653788652
 40
0.7949842001
 40
0.822645738
 40
0.848335628
 40
0.872028095
 40
0.8937017021
 40
0.9133370532
 40
0.9309199564
 40
0.9389386611
 40
0.9464408017
 40
0.9534261294
 40
0.9598950516
 40
0.9658484136
 40
0.9712876536
 40
0.9762150979
 40
0.9806347099
 40
0.9845524358
 40
0.9879769671
 40
0.990921517
 40
0.9922204183
 40
0.9934083014
 40
0.9944901497
 40
0.9954725309
 40
0.9963641799
 40
0.9971767268
 40
0.9979254574
 40
0.998629784
 40
0.9993128727
 40
1.0
 40
1.0
 40
1.0
 40
1.0
 10
9.4107242227
 20
4.7768522129
 30
0.0
 10
9.4105213934
 20
4.7730776722
 30
0.0
 10
9.4100881384
 20
4.7657059483
 30
0.0
 10
9.4093634212
 20
4.7549295254
 30
0.0
 10
9.4086093221
 20
4.7447197293
 30
0.0
 10
9.4078549937
 20
4.7351102619
 30
0.0
 10
9.4071275803
 20
4.7261335162
 30
0.0
 10
9.4064520786
 20
4.7178211808
 30
0.0
 10
9.4059391158
 20
4.711322829
 30
0.0
 10
9.4055765598
 20
4.7064788107
 30
0.0
 10
9.4053373109
 20
4.7031208703
 30
0.0
 10
9.4051257014
 20
4.6999510509
 30
0.0
 10
9.404943577
 20
4.6969725814
 30
0.0
 10
9.4047923654
 20
4.6941885541
 30
0.0
 10
9.4046732069
 20
4.6916018828
 30
0.0
 10
9.4045872258
 20
4.6892152548
 30
0.0
 10
9.4045348685
 20
4.687031174
 30
0.0
 10
9.4045167321
 20
4.6850518722
 30
0.0
 10
9.4045304373
 20
4.683531436
 30
0.0
 10
9.4045602365
 20
4.6824192202
 30
0.0
 10
9.4045904783
 20
4.6816633867
 30
0.0
 10
9.4046292121
 20
4.6809600962
 30
0.0
 10
9.4046763265
 20
4.6803094894
 30
0.0
 10
9.4047317096
 20
4.6797116919
 30
0.0
 10
9.4047952413
 20
4.6791668201
 30
0.0
 10
9.4048668118
 20
4.678674964
 30
0.0
 10
9.4049462361
 20
4.6782361714
 30
0.0
 10
9.4050332894
 20
4.6778504047
 30
0.0
 10
9.4051277781
 20
4.6775176382
 30
0.0
 10
9.4052158393
 20
4.67727505
 30
0.0
 10
9.4052912081
 20
4.6771086981
 30
0.0
 10
9.4053471513
 20
4.6770025106
 30
0.0
 10
9.4054048736
 20
4.6769095664
 30
0.0
 10
9.4054643891
 20
4.6768298411
 30
0.0
 10
9.4055257303
 20
4.6767633183
 30
0.0
 10
9.4055889626
 20
4.6767100183
 30
0.0
 10
9.4056541572
 20
4.6766700354
 30
0.0
 10
9.4057213373
 20
4.6766435628
 30
0.0
 10
9.4057903297
 20
4.6766308278
 30
0.0
 10
9.4058367134
 20
4.6766315551
 30
0.0
 10
9.4058596731
 20
4.67663404
 30
0.0
  0
SPLINE
  5
289
100
AcDbEntity
  8
02___PRT_ALL_AXES
100
AcDbSpline
 62
7
  6
CONTINUOUS
 70
0
 71
3
 72
42
 73
38
 74
0
 42
0.0000001
 43
0.0000001
 44
0.0000000001
 40
0.0
 40
0.0
 40
0.0
 40
0.0
 40
0.00676145
 40
0.0134857873
 40
0.0202035318
 40
0.0269455063
 40
0.0337424172
 40
0.0406245682
 40
0.0476218121
 40
0.0547627879
 40
0.0695762143
 40
0.0852670792
 40
0.1020012274
 40
0.1199155026
 40
0.1391208577
 40
0.1597057258
 40
0.1817397448
 40
0.2052760229
 40
0.2303549127
 40
0.2570051206
 40
0.2852458396
 40
0.3150886753
 40
0.3465373223
 40
0.3795903897
 40
0.4142404038
 40
0.4504754291
 40
0.4882797111
 40
0.5276328966
 40
0.5685123372
 40
0.6108916624
 40
0.6547422926
 40
0.7000330163
 40
0.7467293513
 40
0.7947959612
 40
0.8441965577
 40
0.8948941776
 40
1.0
 40
1.0
 40
1.0
 40
1.0
 10
9.8804938602
 20
4.2261116233
 30
0.0
 10
9.8804802697
 20
4.2258678647
 30
0.0
 10
9.8804695084
 20
4.2253806042
 30
0.0
 10
9.8805035769
 20
4.2246513519
 30
0.0
 10
9.8805880203
 20
4.2239268738
 30
0.0
 10
9.880722932
 20
4.2232074236
 30
0.0
 10
9.8809083931
 20
4.2224931906
 30
0.0
 10
9.8811444786
 20
4.2217843608
 30
0.0
 10
9.8814312106
 20
4.221081035
 30
0.0
 10
9.8818865095
 20
4.2201393747
 30
0.0
 10
9.8825899885
 20
4.2189723744
 30
0.0
 10
9.8836266718
 20
4.217614293
 30
0.0
 10
9.8848653095
 20
4.2162806668
 30
0.0
 10
9.8863054485
 20
4.214971146
 30
0.0
 10
9.8879465611
 20
4.2136848367
 30
0.0
 10
9.8897879804
 20
4.212420696
 30
0.0
 10
9.8918290622
 20
4.2111778557
 30
0.0
 10
9.8940686591
 20
4.2099548763
 30
0.0
 10
9.8965056061
 20
4.2087505888
 30
0.0
 10
9.8991383175
 20
4.2075634037
 30
0.0
 10
9.9019649569
 20
4.2063915721
 30
0.0
 10
9.9049834829
 20
4.2052334
 30
0.0
 10
9.908191466
 20
4.2040866661
 30
0.0
 10
9.9115863285
 20
4.2029493625
 30
0.0
 10
9.9151651642
 20
4.2018190839
 30
0.0
 10
9.9189248491
 20
4.2006933747
 30
0.0
 10
9.9228620407
 20
4.1995697598
 30
0.0
 10
9.9269731359
 20
4.1984454655
 30
0.0
 10
9.9312543589
 20
4.1973178527
 30
0.0
 10
9.9357017178
 20
4.1961840585
 30
0.0
 10
9.9403110309
 20
4.1950412374
 30
0.0
 10
9.9450779114
 20
4.1938865394
 30
0.0
 10
9.9499977809
 20
4.1927170373
 30
0.0
 10
9.9550659455
 20
4.1915298588
 30
0.0
 10
9.9602776536
 20
4.1903220882
 30
0.0
 10
9.967498285
 20
4.1886604813
 30
0.0
 10
9.9729820745
 20
4.1874051857
 30
0.0
 10
9.9766809564
 20
4.1865561278
 30
0.0
  0
SPLINE
  5
28A
100
AcDbEntity
  8
02___PRT_ALL_AXES
100
AcDbSpline
 62
7
  6
CONTINUOUS
 70
0
 71
3
 72
42
 73
38
 74
0
 42
0.0000001
 43
0.0000001
 44
0.0000000001
 40
0.0
 40
0.0
 40
0.0
 40
0.0
 40
0.00676145
 40
0.0134857873
 40
0.0202035318
 40
0.0269455063
 40
0.0337424172
 40
0.0406245682
 40
0.0476218121
 40
0.0547627879
 40
0.0695762143
 40
0.0852670792
 40
0.1020012274
 40
0.1199155026
 40
0.1391208576
 40
0.1597057258
 40
0.1817397448
 40
0.2052760229
 40
0.2303549128
 40
0.2570051206
 40
0.2852458396
 40
0.3150886754
 40
0.3465373224
 40
0.3795903898
 40
0.4142404039
 40
0.4504754291
 40
0.4882797112
 40
0.5276328967
 40
0.5685123372
 40
0.6108916625
 40
0.6547422926
 40
0.7000330163
 40
0.7467293513
 40
0.7947959612
 40
0.8441965577
 40
0.8948941776
 40
1.0
 40
1.0
 40
1.0
 40
1.0
 10
9.0235737896
 20
4.2738883767
 30
0.0
 10
9.0235873801
 20
4.2741321353
 30
0.0
 10
9.0235981414
 20
4.2746193958
 30
0.0
 10
9.0235640729
 20
4.2753486481
 30
0.0
 10
9.0234796295
 20
4.2760731262
 30
0.0
 10
9.0233447178
 20
4.2767925764
 30
0.0
 10
9.0231592567
 20
4.2775068094
 30
0.0
 10
9.0229231713
 20
4.2782156392
 30
0.0
 10
9.0226364392
 20
4.278918965
 30
0.0
 10
9.0221811403
 20
4.2798606253
 30
0.0
 10
9.0214776613
 20
4.2810276256
 30
0.0
 10
9.020440978
 20
4.282385707
 30
0.0
 10
9.0192023403
 20
4.2837193332
 30
0.0
 10
9.0177622013
 20
4.285028854
 30
0.0
 10
9.0161210887
 20
4.2863151633
 30
0.0
 10
9.0142796694
 20
4.287579304
 30
0.0
 10
9.0122385876
 20
4.2888221443
 30
0.0
 10
9.0099989907
 20
4.2900451237
 30
0.0
 10
9.0075620437
 20
4.2912494112
 30
0.0
 10
9.0049293323
 20
4.2924365963
 30
0.0
 10
9.0021026929
 20
4.2936084279
 30
0.0
 10
8.9990841669
 20
4.2947666
 30
0.0
 10
8.9958761838
 20
4.2959133339
 30
0.0
 10
8.9924813213
 20
4.2970506375
 30
0.0
 10
8.9889024856
 20
4.2981809161
 30
0.0
 10
8.9851428007
 20
4.2993066253
 30
0.0
 10
8.9812056091
 20
4.3004302402
 30
0.0
 10
8.9770945139
 20
4.3015545345
 30
0.0
 10
8.9728132909
 20
4.3026821473
 30
0.0
 10
8.968365932
 20
4.3038159415
 30
0.0
 10
8.9637566189
 20
4.3049587626
 30
0.0
 10
8.9589897384
 20
4.3061134606
 30
0.0
 10
8.9540698689
 20
4.3072829627
 30
0.0
 10
8.9490017043
 20
4.3084701412
 30
0.0
 10
8.9437899962
 20
4.3096779118
 30
0.0
 10
8.9365693648
 20
4.3113395187
 30
0.0
 10
8.9310855753
 20
4.3125948143
 30
0.0
 10
8.9273866934
 20
4.3134438722
 30
0.0
  0
SPLINE
  5
28B
100
AcDbEntity
  8
02___PRT_ALL_AXES
100
AcDbSpline
 62
7
  6
CONTINUOUS
 70
0
 71
3
 72
45
 73
41
 74
0
 42
0.0000001
 43
0.0000001
 44
0.0000000001
 40
0.0
 40
0.0
 40
0.0
 40
0.0
 40
0.1124690156
 40
0.2197114953
 40
0.3213612027
 40
0.4170752433
 40
0.5065088112
 40
0.5893290344
 40
0.6652143181
 40
0.7004604474
 40
0.7338599523
 40
0.7653788651
 40
0.7949842
 40
0.8226457379
 40
0.8483356279
 40
0.872028095
 40
0.8937017021
 40
0.9133370531
 40
0.9309199564
 40
0.9389386611
 40
0.9464408017
 40
0.9534261294
 40
0.9598950516
 40
0.9658484136
 40
0.9712876536
 40
0.9762150979
 40
0.9806347099
 40
0.9845524358
 40
0.9879769671
 40
0.990921517
 40
0.9922204183
 40
0.9934083014
 40
0.9944901497
 40
0.9954725309
 40
0.9963641799
 40
0.9971767268
 40
0.9979254574
 40
0.998629784
 40
0.9993128727
 40
1.0
 40
1.0
 40
1.0
 40
1.0
 10
9.4933434271
 20
3.7231477871
 30
0.0
 10
9.4935462564
 20
3.7269223278
 30
0.0
 10
9.4939795114
 20
3.7342940517
 30
0.0
 10
9.4947042286
 20
3.7450704746
 30
0.0
 10
9.4954583277
 20
3.7552802707
 30
0.0
 10
9.4962126561
 20
3.7648897381
 30
0.0
 10
9.4969400695
 20
3.7738664838
 30
0.0
 10
9.4976155712
 20
3.7821788192
 30
0.0
 10
9.498128534
 20
3.788677171
 30
0.0
 10
9.49849109
 20
3.7935211892
 30
0.0
 10
9.4987303389
 20
3.7968791297
 30
0.0
 10
9.4989419484
 20
3.8000489491
 30
0.0
 10
9.4991240728
 20
3.8030274186
 30
0.0
 10
9.4992752844
 20
3.8058114459
 30
0.0
 10
9.4993944429
 20
3.8083981172
 30
0.0
 10
9.499480424
 20
3.8107847452
 30
0.0
 10
9.4995327813
 20
3.812968826
 30
0.0
 10
9.4995509177
 20
3.8149481278
 30
0.0
 10
9.4995372125
 20
3.816468564
 30
0.0
 10
9.4995074133
 20
3.8175807798
 30
0.0
 10
9.4994771715
 20
3.8183366133
 30
0.0
 10
9.4994384377
 20
3.8190399038
 30
0.0
 10
9.4993913233
 20
3.8196905106
 30
0.0
 10
9.4993359402
 20
3.8202883081
 30
0.0
 10
9.4992724085
 20
3.8208331799
 30
0.0
 10
9.499200838
 20
3.821325036
 30
0.0
 10
9.4991214137
 20
3.8217638286
 30
0.0
 10
9.4990343604
 20
3.8221495953
 30
0.0
 10
9.4989398717
 20
3.8224823618
 30
0.0
 10
9.4988518105
 20
3.82272495
 30
0.0
 10
9.4987764417
 20
3.8228913019
 30
0.0
 10
9.4987204985
 20
3.8229974894
 30
0.0
 10
9.4986627762
 20
3.8230904336
 30
0.0
 10
9.4986032607
 20
3.8231701589
 30
0.0
 10
9.4985419195
 20
3.8232366817
 30
0.0
 10
9.4984786872
 20
3.8232899817
 30
0.0
 10
9.4984134926
 20
3.8233299646
 30
0.0
 10
9.4983463125
 20
3.8233564372
 30
0.0
 10
9.4982773201
 20
3.8233691722
 30
0.0
 10
9.4982309364
 20
3.8233684449
 30
0.0
 10
9.4982079767
 20
3.82336596
 30
0.0
  0
SPLINE
  5
28C
100
AcDbEntity
  8
02___PRT_ALL_AXES
100
AcDbSpline
 62
7
  6
CONTINUOUS
 70
0
 71
3
 72
25
 73
21
 74
0
 42
0.0000001
 43
0.0000001
 44
0.0000000001
 40
0.0
 40
0.0
 40
0.0
 40
0.0
 40
0.0300609156
 40
0.0601689738
 40
0.0903289783
 40
0.1205479951
 40
0.1811789841
 40
0.2421067945
 40
0.3033578654
 40
0.3649503905
 40
0.426895781
 40
0.4891998312
 40
0.551863615
 40
0.614884302
 40
0.678255795
 40
0.741969336
 40
0.8060140434
 40
0.8703765395
 40
0.9350448506
 40
1.0
 40
1.0
 40
1.0
 40
1.0
 10
8.9273866934
 20
4.3134438722
 30
0.0
 10
8.9224596893
 20
4.3145748387
 30
0.0
 10
8.9126365697
 20
4.3170106124
 30
0.0
 10
8.8980244735
 20
4.3211707606
 30
0.0
 10
8.8835357978
 20
4.3258307127
 30
0.0
 10
8.8643790205
 20
4.3327040524
 30
0.0
 10
8.8407909124
 20
4.3425043559
 30
0.0
 10
8.8131932546
 20
4.3560926738
 30
0.0
 10
8.7863485653
 20
4.3714415383
 30
0.0
 10
8.760331243
 20
4.3884668431
 30
0.0
 10
8.735207767
 20
4.4070829066
 30
0.0
 10
8.711037718
 20
4.4272024052
 30
0.0
 10
8.6878731738
 20
4.4487369937
 30
0.0
 10
8.6657587239
 20
4.4715978223
 30
0.0
 10
8.6447314474
 20
4.4956961046
 30
0.0
 10
8.6248210253
 20
4.5209437209
 30
0.0
 10
8.6060500584
 20
4.5472535949
 30
0.0
 10
8.5884336823
 20
4.574540725
 30
0.0
 10
8.571981471
 20
4.6027210813
 30
0.0
 10
8.5618118804
 20
4.6220100443
 30
0.0
 10
8.5569197054
 20
4.6317763162
 30
0.0
  0
SPLINE
  5
28D
100
AcDbEntity
  8
02___PRT_ALL_AXES
100
AcDbSpline
 62
7
  6
CONTINUOUS
 70
0
 71
3
 72
26
 73
22
 74
0
 42
0.0000001
 43
0.0000001
 44
0.0000000001
 40
0.0
 40
0.0
 40
0.0
 40
0.0
 40
0.0300604531
 40
0.0601677526
 40
0.0903271908
 40
0.1205458966
 40
0.1508300145
 40
0.1811843337
 40
0.2421117794
 40
0.3033625078
 40
0.3649546298
 40
0.4268995939
 40
0.4892032196
 40
0.5518665828
 40
0.614886849
 40
0.6782579177
 40
0.7419710435
 40
0.8060153162
 40
0.8703773685
 40
0.9350453136
 40
1.0
 40
1.0
 40
1.0
 40
1.0
 10
9.9766809564
 20
4.1865561278
 30
0.0
 10
9.9816079237
 20
4.1854251697
 30
0.0
 10
9.9914309178
 20
4.182989438
 30
0.0
 10
10.0060428691
 20
4.1788293258
 30
0.0
 10
10.0205312971
 20
4.1741694828
 30
0.0
 10
10.0348843141
 20
4.1690196844
 30
0.0
 10
10.049091129
 20
4.163389489
 30
0.0
 10
10.0678454049
 20
4.1552460091
 30
0.0
 10
10.0908744448
 20
4.1439073658
 30
0.0
 10
10.1177185635
 20
4.1285587572
 30
0.0
 10
10.1437361136
 20
4.1115333778
 30
0.0
 10
10.1688595858
 20
4.0929173287
 30
0.0
 10
10.1930296856
 20
4.0727978154
 30
0.0
 10
10.2161942636
 20
4.0512632126
 30
0.0
 10
10.2383087505
 20
4.028402364
 30
0.0
 10
10.259336064
 20
4.0043040592
 30
0.0
 10
10.2792465222
 20
3.9790564196
 30
0.0
 10
10.2980175171
 20
3.952746518
 30
0.0
 10
10.3156339225
 20
3.9254593494
 30
0.0
 10
10.332086156
 20
3.8972789543
 30
0.0
 10
10.3422557655
 20
3.8779899635
 30
0.0
 10
10.3471479444
 20
3.8682236838
 30
0.0
  0
SPLINE
  5
28E
100
AcDbEntity
  8
02___PRT_ALL_AXES
100
AcDbSpline
 62
7
  6
CONTINUOUS
 70
0
 71
3
 72
30
 73
26
 74
0
 42
0.0000001
 43
0.0000001
 44
0.0000000001
 40
0.0
 40
0.0
 40
0.0
 40
0.0
 40
0.0867401515
 40
0.1711740482
 40
0.2530992136
 40
0.3323313236
 40
0.4086761654
 40
0.4819237949
 40
0.5518560878
 40
0.6182511261
 40
0.6808811698
 40
0.710716233
 40
0.7395271625
 40
0.7672887412
 40
0.7939772158
 40
0.819571111
 40
0.8440527289
 40
0.8674086789
 40
0.8896310839
 40
0.9107195499
 40
0.9306841447
 40
0.9495475915
 40
0.9673474556
 40
0.9841391178
 40
1.0
 40
1.0
 40
1.0
 40
1.0
 10
8.5569197054
 20
4.6317763162
 30
0.0
 10
8.5563939247
 20
4.6328259347
 30
0.0
 10
8.5553770621
 20
4.6349077287
 30
0.0
 10
8.5539381238
 20
4.6380165664
 30
0.0
 10
8.5526076537
 20
4.6410628083
 30
0.0
 10
8.5513884993
 20
4.6440373116
 30
0.0
 10
8.5502836369
 20
4.6469307875
 30
0.0
 10
8.5492964307
 20
4.6497334211
 30
0.0
 10
8.548430577
 20
4.6524348786
 30
0.0
 10
8.547690072
 20
4.655024247
 30
0.0
 10
8.5471729065
 20
4.6571117509
 30
0.0
 10
8.5468283747
 20
4.6587166536
 30
0.0
 10
8.5466085377
 20
4.6598653576
 30
0.0
 10
8.546423656
 20
4.6609770662
 30
0.0
 10
8.5462743703
 20
4.6620501893
 30
0.0
 10
8.546161327
 20
4.6630831111
 30
0.0
 10
8.5460851775
 20
4.6640742055
 30
0.0
 10
8.5460465649
 20
4.6650218406
 30
0.0
 10
8.546046127
 20
4.6659243843
 30
0.0
 10
8.5460845178
 20
4.6667802257
 30
0.0
 10
8.5461623811
 20
4.667587796
 30
0.0
 10
8.5462803461
 20
4.6683455622
 30
0.0
 10
8.5464391191
 20
4.6690520267
 30
0.0
 10
8.5466392438
 20
4.6697055912
 30
0.0
 10
8.5468050957
 20
4.6701160323
 30
0.0
 10
8.5468955042
 20
4.6703107268
 30
0.0
  0
ELLIPSE
  5
28F
100
AcDbEntity
  8
0
100
AcDbEllipse
 62
7
  6
CONTINUOUS
 10
3.3363490639
 20
4.25
 30
0.0
 11
0.0
 21
0.6285418853
 31
0.0
 40
1.0
 41
-2.2033299076
 42
-0.938262746
  0
ENDSEC
  0
SECTION
  2
OBJECTS
  0
DICTIONARY
  5
C
100
AcDbDictionary
280
0
281
1
  3
ACAD_GROUP
350
D
  3
ACAD_MLINESTYLE
350
17
  3
ACAD_LAYOUT
350
1A
  3
ACAD_PLOTSETTINGS
350
19
  3
ACAD_PLOTSTYLENAME
350
E
  0
DICTIONARY
  5
D
102
{ACAD_REACTORS
330
C
102
}
100
AcDbDictionary
280
0
281
1
  0
ACDBDICTIONARYWDFLT
  5
E
102
{ACAD_REACTORS
330
C
102
}
100
AcDbDictionary
281
1
  3
Normal
350
F
100
AcDbDictionaryWithDefault
340
F
  0
DICTIONARY
  5
17
102
{ACAD_REACTORS
330
C
102
}
100
AcDbDictionary
280
0
281
1
  3
Standard
350
18
  0
DICTIONARY
  5
19
102
{ACAD_REACTORS
330
C
102
}
100
AcDbDictionary
281
1
  0
DICTIONARY
  5
1A
102
{ACAD_REACTORS
330
C
102
}
100
AcDbDictionary
281
1
  3
Model
350
290
  3
Layout1
350
291
  0
ACDBPLACEHOLDER
  5
F
102
{ACAD_REACTORS
330
E
102
}
  0
MLINESTYLE
  5
18
102
{ACAD_REACTORS
330
17
102
}
100
AcDbMlineStyle
  2
STANDARD
 70
0
  3

 62
256
 51
90.0
 52
90.0
 71
2
 49
0.5
 62
256
  6
BYLAYER
 49
-0.5
 62
256
  6
BYLAYER
  0
LAYOUT
  5
290
102
{ACAD_REACTORS
330
1A
102
}
100
AcDbPlotSettings
  1

  2
none_device
  4
ANSI_A_(11.00_x_8.50_Inches)
  6

 40
0.0
 41
0.0
 42
0.0
 43
0.0
 44
279.4
 45
215.9
 46
0.0
 47
0.0
 48
0.0
 49
0.0
140
0.0
141
0.0
142
1.0
143
1.0
 70
1024
 72
0
 73
0
 74
0
  7

 75
0
147
1.0
148
0.0
149
0.0
100
AcDbLayout
  1
Model
 70
0
 71
0
 10
0.0
 20
0.0
 11
11.0
 21
8.5
 12
0.0
 22
0.0
 32
0.0
 14
0.0
 24
0.0
 34
0.0
 15
0.0
 25
0.0
 35
0.0
146
0.0
 13
0.0
 23
0.0
 33
0.0
 16
1.0
 26
0.0
 36
0.0
 17
0.0
 27
1.0
 37
0.0
 76
0
330
21B
345
0
346
0
  0
LAYOUT
  5
291
102
{ACAD_REACTORS
330
1A
102
}
100
AcDbPlotSettings
  1

  2
none_device
  4
ANSI_A_(11.00_x_8.50_Inches)
  6

 40
0.0
 41
0.0
 42
0.0
 43
0.0
 44
279.4
 45
215.9
 46
0.0
 47
0.0
 48
0.0
 49
0.0
140
0.0
141
0.0
142
1.0
143
1.0
 70
0
 72
0
 73
0
 74
0
  7

 75
0
147
1.0
148
0.0
149
0.0
100
AcDbLayout
  1
Layout1
 70
0
 71
1
 10
0.0
 20
0.0
 11
11.0
 21
8.5
 12
0.0
 22
0.0
 32
0.0
 14
0.0
 24
0.0
 34
0.0
 15
0.0
 25
0.0
 35
0.0
146
0.0
 13
0.0
 23
0.0
 33
0.0
 16
1.0
 26
0.0
 36
0.0
 17
0.0
 27
1.0
 37
0.0
 76
0
330
21C
345
0
346
0
  0
ENDSEC
  0
EOF
