ISO-10303-21;
HEADER;
FILE_DESCRIPTION(('no description'),'unknown implementation level');
FILE_NAME('16973120-Huellk.stp','  ',('CIM GmbH Aachen'),('CADClick - KiM GmbH - www.kimweb.de'),'unknown preprocess','ACIS','unknown authorization');
FILE_SCHEMA(('automotive_design'));
ENDSEC;
DATA;
#1=MECHANICAL_DESIGN_GEOMETRIC_PRESENTATION_REPRESENTATION(' ',(#14,#15,#16,#17,#18,#19,#20,#21,#22,#23,#24,#25,#26,#27,#28,#29,#30,#31,#32,#33,#34,#35,#36,#37,#38,#39,#40,#41,#42,#43,#44,#45,#46,#47,#48,#49,#50,#51,#52,#53,#54,#55,#56,#57,#58,#59,#60,#61,#62,#63),#10);
#2=PRODUCT_DEFINITION_CONTEXT('',#64,'design');
#3=APPLICATION_PROTOCOL_DEFINITION('INTERNATIONAL STANDARD','automotive_design',1994,#64);
#4=PRODUCT_CATEGORY_RELATIONSHIP('NONE','NONE',#65,#66);
#5=SHAPE_DEFINITION_REPRESENTATION(#67,#68);
#6=PRODUCT_DEFINITION_CONTEXT('',#69,'design');
#7=APPLICATION_PROTOCOL_DEFINITION('INTERNATIONAL STANDARD','automotive_design',1994,#69);
#8=PRODUCT_CATEGORY_RELATIONSHIP('NONE','NONE',#70,#71);
#9=SHAPE_DEFINITION_REPRESENTATION(#72,#73);
#10= (GEOMETRIC_REPRESENTATION_CONTEXT(3)GLOBAL_UNCERTAINTY_ASSIGNED_CONTEXT((#76))GLOBAL_UNIT_ASSIGNED_CONTEXT((#78,#79,#80))REPRESENTATION_CONTEXT('NONE','WORKSPACE'));
#14=STYLED_ITEM('',(#82),#83);
#15=STYLED_ITEM('',(#84),#85);
#16=STYLED_ITEM('',(#86),#87);
#17=STYLED_ITEM('',(#88),#89);
#18=STYLED_ITEM('',(#90),#91);
#19=STYLED_ITEM('',(#92),#93);
#20=STYLED_ITEM('',(#94),#95);
#21=STYLED_ITEM('',(#96),#97);
#22=STYLED_ITEM('',(#98),#99);
#23=STYLED_ITEM('',(#100),#101);
#24=STYLED_ITEM('',(#102),#103);
#25=STYLED_ITEM('',(#104),#105);
#26=STYLED_ITEM('',(#106),#107);
#27=STYLED_ITEM('',(#108),#109);
#28=STYLED_ITEM('',(#110),#111);
#29=STYLED_ITEM('',(#112),#113);
#30=STYLED_ITEM('',(#114),#115);
#31=STYLED_ITEM('',(#116),#117);
#32=STYLED_ITEM('',(#118),#119);
#33=STYLED_ITEM('',(#120),#121);
#34=STYLED_ITEM('',(#122),#123);
#35=STYLED_ITEM('',(#124),#125);
#36=STYLED_ITEM('',(#126),#127);
#37=STYLED_ITEM('',(#128),#129);
#38=STYLED_ITEM('',(#130),#131);
#39=STYLED_ITEM('',(#132),#133);
#40=STYLED_ITEM('',(#134),#135);
#41=STYLED_ITEM('',(#136),#137);
#42=STYLED_ITEM('',(#138),#139);
#43=STYLED_ITEM('',(#140),#141);
#44=STYLED_ITEM('',(#142),#143);
#45=STYLED_ITEM('',(#144),#145);
#46=STYLED_ITEM('',(#146),#147);
#47=STYLED_ITEM('',(#148),#149);
#48=STYLED_ITEM('',(#150),#151);
#49=STYLED_ITEM('',(#152),#153);
#50=STYLED_ITEM('',(#154),#155);
#51=STYLED_ITEM('',(#156),#157);
#52=STYLED_ITEM('',(#158),#159);
#53=STYLED_ITEM('',(#160),#161);
#54=STYLED_ITEM('',(#162),#163);
#55=STYLED_ITEM('',(#164),#165);
#56=STYLED_ITEM('',(#166),#167);
#57=STYLED_ITEM('',(#168),#169);
#58=STYLED_ITEM('',(#170),#171);
#59=STYLED_ITEM('',(#172),#173);
#60=STYLED_ITEM('',(#174),#175);
#61=STYLED_ITEM('',(#176),#177);
#62=STYLED_ITEM('',(#178),#179);
#63=STYLED_ITEM('',(#180),#181);
#64=APPLICATION_CONTEXT(' ');
#65=PRODUCT_CATEGORY('part','NONE');
#66=PRODUCT_RELATED_PRODUCT_CATEGORY('detail',' ',(#182));
#67=PRODUCT_DEFINITION_SHAPE('NONE','NONE',#183);
#68=ADVANCED_BREP_SHAPE_REPRESENTATION('1',(#83,#184),#10);
#69=APPLICATION_CONTEXT(' ');
#70=PRODUCT_CATEGORY('part','NONE');
#71=PRODUCT_RELATED_PRODUCT_CATEGORY('detail',' ',(#185));
#72=PRODUCT_DEFINITION_SHAPE('NONE','NONE',#186);
#73=ADVANCED_BREP_SHAPE_REPRESENTATION('2',(#141,#187),#10);
#76=UNCERTAINTY_MEASURE_WITH_UNIT(LENGTH_MEASURE(1.0E-006),#78,'','');
#78= (CONVERSION_BASED_UNIT('MILLIMETRE',#190)LENGTH_UNIT()NAMED_UNIT(#193));
#79= (NAMED_UNIT(#195)PLANE_ANGLE_UNIT()SI_UNIT($,.RADIAN.));
#80= (NAMED_UNIT(#195)SOLID_ANGLE_UNIT()SI_UNIT($,.STERADIAN.));
#82=PRESENTATION_STYLE_ASSIGNMENT((#201));
#83=MANIFOLD_SOLID_BREP('1',#202);
#84=PRESENTATION_STYLE_ASSIGNMENT((#203));
#85=EDGE_CURVE('',#137,#91,#204,.T.);
#86=PRESENTATION_STYLE_ASSIGNMENT((#205));
#87=VERTEX_POINT('',#206);
#88=PRESENTATION_STYLE_ASSIGNMENT((#207));
#89=EDGE_CURVE('',#137,#165,#208,.T.);
#90=PRESENTATION_STYLE_ASSIGNMENT((#209));
#91=VERTEX_POINT('',#210);
#92=PRESENTATION_STYLE_ASSIGNMENT((#211));
#93=EDGE_CURVE('',#177,#173,#212,.T.);
#94=PRESENTATION_STYLE_ASSIGNMENT((#213));
#95=EDGE_CURVE('',#103,#149,#214,.T.);
#96=PRESENTATION_STYLE_ASSIGNMENT((#215));
#97=EDGE_CURVE('',#121,#173,#216,.T.);
#98=PRESENTATION_STYLE_ASSIGNMENT((#217));
#99=EDGE_CURVE('',#91,#103,#218,.T.);
#100=PRESENTATION_STYLE_ASSIGNMENT((#219));
#101=EDGE_CURVE('',#177,#151,#220,.T.);
#102=PRESENTATION_STYLE_ASSIGNMENT((#221));
#103=VERTEX_POINT('',#222);
#104=PRESENTATION_STYLE_ASSIGNMENT((#223));
#105=EDGE_CURVE('',#127,#159,#224,.T.);
#106=PRESENTATION_STYLE_ASSIGNMENT((#225));
#107=ADVANCED_FACE('',(#226),#227,.T.);
#108=PRESENTATION_STYLE_ASSIGNMENT((#228));
#109=ADVANCED_FACE('',(#229),#230,.T.);
#110=PRESENTATION_STYLE_ASSIGNMENT((#231));
#111=EDGE_CURVE('',#151,#177,#232,.T.);
#112=PRESENTATION_STYLE_ASSIGNMENT((#233));
#113=EDGE_CURVE('',#127,#103,#234,.T.);
#114=PRESENTATION_STYLE_ASSIGNMENT((#235));
#115=EDGE_CURVE('',#87,#139,#236,.T.);
#116=PRESENTATION_STYLE_ASSIGNMENT((#237));
#117=ADVANCED_FACE('',(#238),#239,.T.);
#118=PRESENTATION_STYLE_ASSIGNMENT((#240));
#119=EDGE_CURVE('',#165,#137,#241,.T.);
#120=PRESENTATION_STYLE_ASSIGNMENT((#242));
#121=VERTEX_POINT('',#243);
#122=PRESENTATION_STYLE_ASSIGNMENT((#244));
#123=EDGE_CURVE('',#173,#121,#245,.T.);
#124=PRESENTATION_STYLE_ASSIGNMENT((#246));
#125=EDGE_CURVE('',#121,#87,#247,.T.);
#126=PRESENTATION_STYLE_ASSIGNMENT((#248));
#127=VERTEX_POINT('',#249);
#128=PRESENTATION_STYLE_ASSIGNMENT((#250));
#129=VERTEX_POINT('',#251);
#130=PRESENTATION_STYLE_ASSIGNMENT((#252));
#131=EDGE_CURVE('',#139,#87,#253,.T.);
#132=PRESENTATION_STYLE_ASSIGNMENT((#254));
#133=EDGE_CURVE('',#139,#173,#255,.T.);
#134=PRESENTATION_STYLE_ASSIGNMENT((#256));
#135=ADVANCED_FACE('',(#257),#258,.T.);
#136=PRESENTATION_STYLE_ASSIGNMENT((#259));
#137=VERTEX_POINT('',#260);
#138=PRESENTATION_STYLE_ASSIGNMENT((#261));
#139=VERTEX_POINT('',#262);
#140=PRESENTATION_STYLE_ASSIGNMENT((#263));
#141=MANIFOLD_SOLID_BREP('2',#264);
#142=PRESENTATION_STYLE_ASSIGNMENT((#265));
#143=EDGE_CURVE('',#159,#127,#266,.T.);
#144=PRESENTATION_STYLE_ASSIGNMENT((#267));
#145=EDGE_CURVE('',#121,#151,#268,.T.);
#146=PRESENTATION_STYLE_ASSIGNMENT((#269));
#147=EDGE_CURVE('',#149,#165,#270,.T.);
#148=PRESENTATION_STYLE_ASSIGNMENT((#271));
#149=VERTEX_POINT('',#272);
#150=PRESENTATION_STYLE_ASSIGNMENT((#273));
#151=VERTEX_POINT('',#274);
#152=PRESENTATION_STYLE_ASSIGNMENT((#275));
#153=ADVANCED_FACE('',(#276),#277,.T.);
#154=PRESENTATION_STYLE_ASSIGNMENT((#278));
#155=ADVANCED_FACE('',(#279),#280,.T.);
#156=PRESENTATION_STYLE_ASSIGNMENT((#281));
#157=ADVANCED_FACE('',(#282),#283,.T.);
#158=PRESENTATION_STYLE_ASSIGNMENT((#284));
#159=VERTEX_POINT('',#285);
#160=PRESENTATION_STYLE_ASSIGNMENT((#286));
#161=EDGE_CURVE('',#129,#159,#287,.T.);
#162=PRESENTATION_STYLE_ASSIGNMENT((#288));
#163=ADVANCED_FACE('',(#289),#290,.T.);
#164=PRESENTATION_STYLE_ASSIGNMENT((#291));
#165=VERTEX_POINT('',#292);
#166=PRESENTATION_STYLE_ASSIGNMENT((#293));
#167=ADVANCED_FACE('',(#294),#295,.T.);
#168=PRESENTATION_STYLE_ASSIGNMENT((#296));
#169=ADVANCED_FACE('',(#297),#298,.T.);
#170=PRESENTATION_STYLE_ASSIGNMENT((#299));
#171=ADVANCED_FACE('',(#300),#301,.T.);
#172=PRESENTATION_STYLE_ASSIGNMENT((#302));
#173=VERTEX_POINT('',#303);
#174=PRESENTATION_STYLE_ASSIGNMENT((#304));
#175=EDGE_CURVE('',#129,#91,#305,.T.);
#176=PRESENTATION_STYLE_ASSIGNMENT((#306));
#177=VERTEX_POINT('',#307);
#178=PRESENTATION_STYLE_ASSIGNMENT((#308));
#179=EDGE_CURVE('',#149,#129,#309,.T.);
#180=PRESENTATION_STYLE_ASSIGNMENT((#310));
#181=ADVANCED_FACE('',(#311),#312,.T.);
#182=PRODUCT('1','1','PART-1-DESC',(#313));
#183=PRODUCT_DEFINITION('NONE','NONE',#314,#2);
#184=AXIS2_PLACEMENT_3D('',#315,#316,#317);
#185=PRODUCT('2','2','PART-2-DESC',(#318));
#186=PRODUCT_DEFINITION('NONE','NONE',#319,#6);
#187=AXIS2_PLACEMENT_3D('',#320,#321,#322);
#190=LENGTH_MEASURE_WITH_UNIT(LENGTH_MEASURE(1.0),#323);
#193=DIMENSIONAL_EXPONENTS(1.0,0.0,0.0,0.0,0.0,0.0,0.0);
#195=DIMENSIONAL_EXPONENTS(0.0,0.0,0.0,0.0,0.0,0.0,0.0);
#201=SURFACE_STYLE_USAGE(.BOTH.,#324);
#202=CLOSED_SHELL('',(#117,#153,#181,#163,#155,#135));
#203=CURVE_STYLE('',#325,POSITIVE_LENGTH_MEASURE(1.0E-006),#326);
#204=LINE('',#327,#328);
#205=POINT_STYLE(' ',#329,POSITIVE_LENGTH_MEASURE(1.0E-006),#330);
#206=CARTESIAN_POINT('',(8.57224447675664E-016,-7.0,-90.0));
#207=CURVE_STYLE('',#331,POSITIVE_LENGTH_MEASURE(1.0E-006),#332);
#208=CIRCLE('',#333,7.2);
#209=POINT_STYLE(' ',#334,POSITIVE_LENGTH_MEASURE(1.0E-006),#335);
#210=CARTESIAN_POINT('',(0.0,8.0,-0.799999999999997));
#211=CURVE_STYLE('',#336,POSITIVE_LENGTH_MEASURE(1.0E-006),#337);
#212=LINE('',#338,#339);
#213=CURVE_STYLE('',#340,POSITIVE_LENGTH_MEASURE(1.0E-006),#341);
#214=CIRCLE('',#342,8.0);
#215=CURVE_STYLE('',#343,POSITIVE_LENGTH_MEASURE(1.0E-006),#344);
#216=CIRCLE('',#345,7.9999999999);
#217=CURVE_STYLE('',#346,POSITIVE_LENGTH_MEASURE(1.0E-006),#347);
#218=CIRCLE('',#348,8.0);
#219=CURVE_STYLE('',#349,POSITIVE_LENGTH_MEASURE(1.0E-006),#350);
#220=CIRCLE('',#351,8.0);
#221=POINT_STYLE(' ',#352,POSITIVE_LENGTH_MEASURE(1.0E-006),#353);
#222=CARTESIAN_POINT('',(8.0,9.79685083057902E-016,-0.799999999999997));
#223=CURVE_STYLE('',#354,POSITIVE_LENGTH_MEASURE(1.0E-006),#355);
#224=CIRCLE('',#356,8.0);
#225=SURFACE_STYLE_USAGE(.BOTH.,#357);
#226=FACE_OUTER_BOUND('',#358,.T.);
#227=TOROIDAL_SURFACE('',#359,6.99999999989999,1.00000000000001);
#228=SURFACE_STYLE_USAGE(.BOTH.,#360);
#229=FACE_OUTER_BOUND('',#361,.T.);
#230=TOROIDAL_SURFACE('',#362,6.99999999989999,1.00000000000001);
#231=CURVE_STYLE('',#363,POSITIVE_LENGTH_MEASURE(1.0E-006),#364);
#232=CIRCLE('',#365,8.0);
#233=CURVE_STYLE('',#366,POSITIVE_LENGTH_MEASURE(1.0E-006),#367);
#234=LINE('',#368,#369);
#235=CURVE_STYLE('',#370,POSITIVE_LENGTH_MEASURE(1.0E-006),#371);
#236=CIRCLE('',#372,7.0);
#237=SURFACE_STYLE_USAGE(.BOTH.,#373);
#238=FACE_OUTER_BOUND('',#374,.T.);
#239=CYLINDRICAL_SURFACE('',#375,8.0);
#240=CURVE_STYLE('',#376,POSITIVE_LENGTH_MEASURE(1.0E-006),#377);
#241=CIRCLE('',#378,7.2);
#242=POINT_STYLE(' ',#379,POSITIVE_LENGTH_MEASURE(1.0E-006),#380);
#243=CARTESIAN_POINT('',(9.79685083045656E-016,-7.9999999999,-89.0));
#244=CURVE_STYLE('',#381,POSITIVE_LENGTH_MEASURE(1.0E-006),#382);
#245=CIRCLE('',#383,7.9999999999);
#246=CURVE_STYLE('',#384,POSITIVE_LENGTH_MEASURE(1.0E-006),#385);
#247=CIRCLE('',#386,1.00000000000001);
#248=POINT_STYLE(' ',#387,POSITIVE_LENGTH_MEASURE(1.0E-006),#388);
#249=CARTESIAN_POINT('',(8.0,9.79685083057902E-016,-58.0));
#250=POINT_STYLE(' ',#389,POSITIVE_LENGTH_MEASURE(1.0E-006),#390);
#251=CARTESIAN_POINT('',(-8.0,-9.79685083057902E-016,-0.799999999999997));
#252=CURVE_STYLE('',#391,POSITIVE_LENGTH_MEASURE(1.0E-006),#392);
#253=CIRCLE('',#393,7.0);
#254=CURVE_STYLE('',#394,POSITIVE_LENGTH_MEASURE(1.0E-006),#395);
#255=CIRCLE('',#396,1.00000000000001);
#256=SURFACE_STYLE_USAGE(.BOTH.,#397);
#257=FACE_OUTER_BOUND('',#398,.T.);
#258=PLANE('',#399);
#259=POINT_STYLE(' ',#400,POSITIVE_LENGTH_MEASURE(1.0E-006),#401);
#260=CARTESIAN_POINT('',(0.0,7.2,0.0));
#261=POINT_STYLE(' ',#402,POSITIVE_LENGTH_MEASURE(1.0E-006),#403);
#262=CARTESIAN_POINT('',(0.0,7.0,-90.0));
#263=SURFACE_STYLE_USAGE(.BOTH.,#404);
#264=CLOSED_SHELL('',(#107,#167,#157,#171,#109,#169));
#265=CURVE_STYLE('',#405,POSITIVE_LENGTH_MEASURE(1.0E-006),#406);
#266=CIRCLE('',#407,8.0);
#267=CURVE_STYLE('',#408,POSITIVE_LENGTH_MEASURE(1.0E-006),#409);
#268=LINE('',#410,#411);
#269=CURVE_STYLE('',#412,POSITIVE_LENGTH_MEASURE(1.0E-006),#413);
#270=LINE('',#414,#415);
#271=POINT_STYLE(' ',#416,POSITIVE_LENGTH_MEASURE(1.0E-006),#417);
#272=CARTESIAN_POINT('',(9.79685083057902E-016,-8.0,-0.799999999999997));
#273=POINT_STYLE(' ',#418,POSITIVE_LENGTH_MEASURE(1.0E-006),#419);
#274=CARTESIAN_POINT('',(9.79685083057902E-016,-8.0,-58.0));
#275=SURFACE_STYLE_USAGE(.BOTH.,#420);
#276=FACE_OUTER_BOUND('',#421,.T.);
#277=CONICAL_SURFACE('',#422,7.6,0.78539816339745);
#278=SURFACE_STYLE_USAGE(.BOTH.,#423);
#279=FACE_OUTER_BOUND('',#424,.T.);
#280=CYLINDRICAL_SURFACE('',#425,8.0);
#281=SURFACE_STYLE_USAGE(.BOTH.,#426);
#282=FACE_OUTER_BOUND('',#427,.T.);
#283=PLANE('',#428);
#284=POINT_STYLE(' ',#429,POSITIVE_LENGTH_MEASURE(1.0E-006),#430);
#285=CARTESIAN_POINT('',(-8.0,0.0,-58.0));
#286=CURVE_STYLE('',#431,POSITIVE_LENGTH_MEASURE(1.0E-006),#432);
#287=LINE('',#433,#434);
#288=SURFACE_STYLE_USAGE(.BOTH.,#435);
#289=FACE_OUTER_BOUND('',#436,.T.);
#290=CONICAL_SURFACE('',#437,7.6,0.78539816339745);
#291=POINT_STYLE(' ',#438,POSITIVE_LENGTH_MEASURE(1.0E-006),#439);
#292=CARTESIAN_POINT('',(8.81716574752112E-016,-7.2,0.0));
#293=SURFACE_STYLE_USAGE(.BOTH.,#440);
#294=FACE_OUTER_BOUND('',#441,.T.);
#295=CYLINDRICAL_SURFACE('',#442,7.99999999995);
#296=SURFACE_STYLE_USAGE(.BOTH.,#443);
#297=FACE_OUTER_BOUND('',#444,.T.);
#298=PLANE('',#445);
#299=SURFACE_STYLE_USAGE(.BOTH.,#446);
#300=FACE_OUTER_BOUND('',#447,.T.);
#301=CYLINDRICAL_SURFACE('',#448,7.99999999995);
#302=POINT_STYLE(' ',#449,POSITIVE_LENGTH_MEASURE(1.0E-006),#450);
#303=CARTESIAN_POINT('',(0.0,7.9999999999,-89.0));
#304=CURVE_STYLE('',#451,POSITIVE_LENGTH_MEASURE(1.0E-006),#452);
#305=CIRCLE('',#453,8.0);
#306=POINT_STYLE(' ',#454,POSITIVE_LENGTH_MEASURE(1.0E-006),#455);
#307=CARTESIAN_POINT('',(0.0,8.0,-58.0));
#308=CURVE_STYLE('',#456,POSITIVE_LENGTH_MEASURE(1.0E-006),#457);
#309=CIRCLE('',#458,8.0);
#310=SURFACE_STYLE_USAGE(.BOTH.,#459);
#311=FACE_OUTER_BOUND('',#460,.T.);
#312=PLANE('',#461);
#313=PRODUCT_CONTEXT('',#64,'mechanical');
#314=PRODUCT_DEFINITION_FORMATION_WITH_SPECIFIED_SOURCE(' ','NONE',#182,.NOT_KNOWN.);
#315=CARTESIAN_POINT('',(0.0,0.0,0.0));
#316=DIRECTION('',(0.0,0.0,1.0));
#317=DIRECTION('',(1.0,0.0,0.0));
#318=PRODUCT_CONTEXT('',#69,'mechanical');
#319=PRODUCT_DEFINITION_FORMATION_WITH_SPECIFIED_SOURCE(' ','NONE',#185,.NOT_KNOWN.);
#320=CARTESIAN_POINT('',(0.0,0.0,0.0));
#321=DIRECTION('',(0.0,0.0,1.0));
#322=DIRECTION('',(1.0,0.0,0.0));
#323= (NAMED_UNIT(#193)LENGTH_UNIT()SI_UNIT(.MILLI.,.METRE.));
#324=SURFACE_SIDE_STYLE('',(#463));
#325=DRAUGHTING_PRE_DEFINED_CURVE_FONT('continuous');
#326=COLOUR_RGB('',0.498039215803146,0.498039215803146,0.498039215803146);
#327=CARTESIAN_POINT('',(-9.30700828905007E-016,7.6,-0.399999999999999));
#328=VECTOR('',#464,1.0);
#329=PRE_DEFINED_MARKER('');
#330=COLOUR_RGB('',0.800000011920929,0.800000011920929,0.800000011920929);
#331=DRAUGHTING_PRE_DEFINED_CURVE_FONT('continuous');
#332=COLOUR_RGB('',0.498039215803146,0.498039215803146,0.498039215803146);
#333=AXIS2_PLACEMENT_3D('',#465,#466,#467);
#334=PRE_DEFINED_MARKER('');
#335=COLOUR_RGB('',0.498039215803146,0.498039215803146,0.498039215803146);
#336=DRAUGHTING_PRE_DEFINED_CURVE_FONT('continuous');
#337=COLOUR_RGB('',0.800000011920929,0.800000011920929,0.800000011920929);
#338=CARTESIAN_POINT('',(-9.79685083051779E-016,7.99999999995,-73.5));
#339=VECTOR('',#468,1.0);
#340=DRAUGHTING_PRE_DEFINED_CURVE_FONT('continuous');
#341=COLOUR_RGB('',0.498039215803146,0.498039215803146,0.498039215803146);
#342=AXIS2_PLACEMENT_3D('',#469,#470,#471);
#343=DRAUGHTING_PRE_DEFINED_CURVE_FONT('continuous');
#344=COLOUR_RGB('',0.800000011920929,0.800000011920929,0.800000011920929);
#345=AXIS2_PLACEMENT_3D('',#472,#473,#474);
#346=DRAUGHTING_PRE_DEFINED_CURVE_FONT('continuous');
#347=COLOUR_RGB('',0.498039215803146,0.498039215803146,0.498039215803146);
#348=AXIS2_PLACEMENT_3D('',#475,#476,#477);
#349=DRAUGHTING_PRE_DEFINED_CURVE_FONT('continuous');
#350=COLOUR_RGB('',0.800000011920929,0.800000011920929,0.800000011920929);
#351=AXIS2_PLACEMENT_3D('',#478,#479,#480);
#352=PRE_DEFINED_MARKER('');
#353=COLOUR_RGB('',0.498039215803146,0.498039215803146,0.498039215803146);
#354=DRAUGHTING_PRE_DEFINED_CURVE_FONT('continuous');
#355=COLOUR_RGB('',0.498039215803146,0.498039215803146,0.498039215803146);
#356=AXIS2_PLACEMENT_3D('',#481,#482,#483);
#357=SURFACE_SIDE_STYLE('',(#484));
#358=EDGE_LOOP('',(#485,#486,#487,#488));
#359=AXIS2_PLACEMENT_3D('',#489,#490,#491);
#360=SURFACE_SIDE_STYLE('',(#492));
#361=EDGE_LOOP('',(#493,#494,#495,#496));
#362=AXIS2_PLACEMENT_3D('',#497,#498,#499);
#363=DRAUGHTING_PRE_DEFINED_CURVE_FONT('continuous');
#364=COLOUR_RGB('',0.800000011920929,0.800000011920929,0.800000011920929);
#365=AXIS2_PLACEMENT_3D('',#500,#501,#502);
#366=DRAUGHTING_PRE_DEFINED_CURVE_FONT('continuous');
#367=COLOUR_RGB('',0.498039215803146,0.498039215803146,0.498039215803146);
#368=CARTESIAN_POINT('',(8.0,9.79685083057902E-016,-53.0));
#369=VECTOR('',#503,1.0);
#370=DRAUGHTING_PRE_DEFINED_CURVE_FONT('continuous');
#371=COLOUR_RGB('',0.800000011920929,0.800000011920929,0.800000011920929);
#372=AXIS2_PLACEMENT_3D('',#504,#505,#506);
#373=SURFACE_SIDE_STYLE('',(#507));
#374=EDGE_LOOP('',(#508,#509,#510,#511,#512));
#375=AXIS2_PLACEMENT_3D('',#513,#514,#515);
#376=DRAUGHTING_PRE_DEFINED_CURVE_FONT('continuous');
#377=COLOUR_RGB('',0.498039215803146,0.498039215803146,0.498039215803146);
#378=AXIS2_PLACEMENT_3D('',#516,#517,#518);
#379=PRE_DEFINED_MARKER('');
#380=COLOUR_RGB('',0.800000011920929,0.800000011920929,0.800000011920929);
#381=DRAUGHTING_PRE_DEFINED_CURVE_FONT('continuous');
#382=COLOUR_RGB('',0.800000011920929,0.800000011920929,0.800000011920929);
#383=AXIS2_PLACEMENT_3D('',#519,#520,#521);
#384=DRAUGHTING_PRE_DEFINED_CURVE_FONT('continuous');
#385=COLOUR_RGB('',0.800000011920929,0.800000011920929,0.800000011920929);
#386=AXIS2_PLACEMENT_3D('',#522,#523,#524);
#387=PRE_DEFINED_MARKER('');
#388=COLOUR_RGB('',0.498039215803146,0.498039215803146,0.498039215803146);
#389=PRE_DEFINED_MARKER('');
#390=COLOUR_RGB('',0.498039215803146,0.498039215803146,0.498039215803146);
#391=DRAUGHTING_PRE_DEFINED_CURVE_FONT('continuous');
#392=COLOUR_RGB('',0.800000011920929,0.800000011920929,0.800000011920929);
#393=AXIS2_PLACEMENT_3D('',#525,#526,#527);
#394=DRAUGHTING_PRE_DEFINED_CURVE_FONT('continuous');
#395=COLOUR_RGB('',0.800000011920929,0.800000011920929,0.800000011920929);
#396=AXIS2_PLACEMENT_3D('',#528,#529,#530);
#397=SURFACE_SIDE_STYLE('',(#531));
#398=EDGE_LOOP('',(#532,#533));
#399=AXIS2_PLACEMENT_3D('',#534,#535,#536);
#400=PRE_DEFINED_MARKER('');
#401=COLOUR_RGB('',0.498039215803146,0.498039215803146,0.498039215803146);
#402=PRE_DEFINED_MARKER('');
#403=COLOUR_RGB('',0.800000011920929,0.800000011920929,0.800000011920929);
#404=SURFACE_SIDE_STYLE('',(#537));
#405=DRAUGHTING_PRE_DEFINED_CURVE_FONT('continuous');
#406=COLOUR_RGB('',0.498039215803146,0.498039215803146,0.498039215803146);
#407=AXIS2_PLACEMENT_3D('',#538,#539,#540);
#408=DRAUGHTING_PRE_DEFINED_CURVE_FONT('continuous');
#409=COLOUR_RGB('',0.800000011920929,0.800000011920929,0.800000011920929);
#410=CARTESIAN_POINT('',(9.79685083051779E-016,-7.99999999995,-73.5));
#411=VECTOR('',#541,1.0);
#412=DRAUGHTING_PRE_DEFINED_CURVE_FONT('continuous');
#413=COLOUR_RGB('',0.498039215803146,0.498039215803146,0.498039215803146);
#414=CARTESIAN_POINT('',(9.30700828905007E-016,-7.6,-0.399999999999999));
#415=VECTOR('',#542,1.0);
#416=PRE_DEFINED_MARKER('');
#417=COLOUR_RGB('',0.498039215803146,0.498039215803146,0.498039215803146);
#418=PRE_DEFINED_MARKER('');
#419=COLOUR_RGB('',0.800000011920929,0.800000011920929,0.800000011920929);
#420=SURFACE_SIDE_STYLE('',(#543));
#421=EDGE_LOOP('',(#544,#545,#546,#547,#548));
#422=AXIS2_PLACEMENT_3D('',#549,#550,#551);
#423=SURFACE_SIDE_STYLE('',(#552));
#424=EDGE_LOOP('',(#553,#554,#555,#556,#557));
#425=AXIS2_PLACEMENT_3D('',#558,#559,#560);
#426=SURFACE_SIDE_STYLE('',(#561));
#427=EDGE_LOOP('',(#562,#563));
#428=AXIS2_PLACEMENT_3D('',#564,#565,#566);
#429=PRE_DEFINED_MARKER('');
#430=COLOUR_RGB('',0.498039215803146,0.498039215803146,0.498039215803146);
#431=DRAUGHTING_PRE_DEFINED_CURVE_FONT('continuous');
#432=COLOUR_RGB('',0.498039215803146,0.498039215803146,0.498039215803146);
#433=CARTESIAN_POINT('',(-8.0,-9.79685083057902E-016,-53.0));
#434=VECTOR('',#567,1.0);
#435=SURFACE_SIDE_STYLE('',(#568));
#436=EDGE_LOOP('',(#569,#570,#571,#572,#573));
#437=AXIS2_PLACEMENT_3D('',#574,#575,#576);
#438=PRE_DEFINED_MARKER('');
#439=COLOUR_RGB('',0.498039215803146,0.498039215803146,0.498039215803146);
#440=SURFACE_SIDE_STYLE('',(#577));
#441=EDGE_LOOP('',(#578,#579,#580,#581));
#442=AXIS2_PLACEMENT_3D('',#582,#583,#584);
#443=SURFACE_SIDE_STYLE('',(#585));
#444=EDGE_LOOP('',(#586,#587));
#445=AXIS2_PLACEMENT_3D('',#588,#589,#590);
#446=SURFACE_SIDE_STYLE('',(#591));
#447=EDGE_LOOP('',(#592,#593,#594,#595));
#448=AXIS2_PLACEMENT_3D('',#596,#597,#598);
#449=PRE_DEFINED_MARKER('');
#450=COLOUR_RGB('',0.800000011920929,0.800000011920929,0.800000011920929);
#451=DRAUGHTING_PRE_DEFINED_CURVE_FONT('continuous');
#452=COLOUR_RGB('',0.498039215803146,0.498039215803146,0.498039215803146);
#453=AXIS2_PLACEMENT_3D('',#599,#600,#601);
#454=PRE_DEFINED_MARKER('');
#455=COLOUR_RGB('',0.800000011920929,0.800000011920929,0.800000011920929);
#456=DRAUGHTING_PRE_DEFINED_CURVE_FONT('continuous');
#457=COLOUR_RGB('',0.498039215803146,0.498039215803146,0.498039215803146);
#458=AXIS2_PLACEMENT_3D('',#602,#603,#604);
#459=SURFACE_SIDE_STYLE('',(#605));
#460=EDGE_LOOP('',(#606,#607));
#461=AXIS2_PLACEMENT_3D('',#608,#609,#610);
#463=SURFACE_STYLE_FILL_AREA(#611);
#464=DIRECTION('',(-8.65927457071937E-017,0.707106781186549,-0.707106781186546));
#465=CARTESIAN_POINT('',(0.0,0.0,0.0));
#466=DIRECTION('',(0.0,0.0,-1.0));
#467=DIRECTION('',(0.0,1.0,0.0));
#468=DIRECTION('',(0.0,0.0,-1.0));
#469=CARTESIAN_POINT('',(0.0,0.0,-0.799999999999997));
#470=DIRECTION('',(0.0,0.0,-1.0));
#471=DIRECTION('',(0.0,1.0,0.0));
#472=CARTESIAN_POINT('',(0.0,0.0,-89.0));
#473=DIRECTION('',(0.0,0.0,-1.0));
#474=DIRECTION('',(0.0,1.0,0.0));
#475=CARTESIAN_POINT('',(0.0,0.0,-0.799999999999997));
#476=DIRECTION('',(0.0,0.0,-1.0));
#477=DIRECTION('',(0.0,1.0,0.0));
#478=CARTESIAN_POINT('',(0.0,0.0,-58.0));
#479=DIRECTION('',(0.0,0.0,-1.0));
#480=DIRECTION('',(0.0,1.0,0.0));
#481=CARTESIAN_POINT('',(0.0,0.0,-58.0));
#482=DIRECTION('',(0.0,0.0,-1.0));
#483=DIRECTION('',(-1.0,0.0,0.0));
#484=SURFACE_STYLE_FILL_AREA(#612);
#485=ORIENTED_EDGE('',*,*,#125,.F.);
#486=ORIENTED_EDGE('',*,*,#97,.T.);
#487=ORIENTED_EDGE('',*,*,#133,.F.);
#488=ORIENTED_EDGE('',*,*,#115,.F.);
#489=CARTESIAN_POINT('',(0.0,0.0,-88.9999999999));
#490=DIRECTION('',(0.0,0.0,-1.0));
#491=DIRECTION('',(0.0,-1.0,0.0));
#492=SURFACE_STYLE_FILL_AREA(#613);
#493=ORIENTED_EDGE('',*,*,#125,.T.);
#494=ORIENTED_EDGE('',*,*,#131,.F.);
#495=ORIENTED_EDGE('',*,*,#133,.T.);
#496=ORIENTED_EDGE('',*,*,#123,.T.);
#497=CARTESIAN_POINT('',(0.0,0.0,-88.9999999999));
#498=DIRECTION('',(0.0,0.0,-1.0));
#499=DIRECTION('',(0.0,-1.0,0.0));
#500=CARTESIAN_POINT('',(0.0,0.0,-58.0));
#501=DIRECTION('',(0.0,0.0,-1.0));
#502=DIRECTION('',(0.0,1.0,0.0));
#503=DIRECTION('',(0.0,0.0,1.0));
#504=CARTESIAN_POINT('',(0.0,0.0,-90.0));
#505=DIRECTION('',(0.0,0.0,-1.0));
#506=DIRECTION('',(0.0,1.0,0.0));
#507=SURFACE_STYLE_FILL_AREA(#614);
#508=ORIENTED_EDGE('',*,*,#161,.F.);
#509=ORIENTED_EDGE('',*,*,#175,.T.);
#510=ORIENTED_EDGE('',*,*,#99,.T.);
#511=ORIENTED_EDGE('',*,*,#113,.F.);
#512=ORIENTED_EDGE('',*,*,#143,.F.);
#513=CARTESIAN_POINT('',(0.0,0.0,-53.0));
#514=DIRECTION('',(0.0,0.0,1.0));
#515=DIRECTION('',(-1.0,0.0,0.0));
#516=CARTESIAN_POINT('',(0.0,0.0,0.0));
#517=DIRECTION('',(0.0,0.0,-1.0));
#518=DIRECTION('',(0.0,1.0,0.0));
#519=CARTESIAN_POINT('',(0.0,0.0,-89.0));
#520=DIRECTION('',(0.0,0.0,-1.0));
#521=DIRECTION('',(0.0,1.0,0.0));
#522=CARTESIAN_POINT('',(8.57224447663417E-016,-6.99999999989999,-88.9999999999));
#523=DIRECTION('',(1.0,1.22460635382238E-016,0.0));
#524=DIRECTION('',(1.22460635382238E-016,-1.0,0.0));
#525=CARTESIAN_POINT('',(0.0,0.0,-90.0));
#526=DIRECTION('',(0.0,0.0,-1.0));
#527=DIRECTION('',(0.0,1.0,0.0));
#528=CARTESIAN_POINT('',(-8.57224447663417E-016,6.99999999989999,-88.9999999999));
#529=DIRECTION('',(1.0,1.22460635382238E-016,0.0));
#530=DIRECTION('',(-1.22460635382238E-016,1.0,0.0));
#531=SURFACE_STYLE_FILL_AREA(#615);
#532=ORIENTED_EDGE('',*,*,#143,.T.);
#533=ORIENTED_EDGE('',*,*,#105,.T.);
#534=CARTESIAN_POINT('',(-4.0,0.0,-58.0));
#535=DIRECTION('',(0.0,0.0,-1.0));
#536=DIRECTION('',(-1.0,0.0,0.0));
#537=SURFACE_STYLE_FILL_AREA(#616);
#538=CARTESIAN_POINT('',(0.0,0.0,-58.0));
#539=DIRECTION('',(0.0,0.0,-1.0));
#540=DIRECTION('',(-1.0,0.0,0.0));
#541=DIRECTION('',(0.0,0.0,1.0));
#542=DIRECTION('',(-8.65927457071937E-017,0.707106781186549,0.707106781186546));
#543=SURFACE_STYLE_FILL_AREA(#617);
#544=ORIENTED_EDGE('',*,*,#85,.F.);
#545=ORIENTED_EDGE('',*,*,#89,.T.);
#546=ORIENTED_EDGE('',*,*,#147,.F.);
#547=ORIENTED_EDGE('',*,*,#95,.F.);
#548=ORIENTED_EDGE('',*,*,#99,.F.);
#549=CARTESIAN_POINT('',(0.0,0.0,-0.399999999999999));
#550=DIRECTION('',(0.0,0.0,-1.0));
#551=DIRECTION('',(0.0,1.0,0.0));
#552=SURFACE_STYLE_FILL_AREA(#618);
#553=ORIENTED_EDGE('',*,*,#161,.T.);
#554=ORIENTED_EDGE('',*,*,#105,.F.);
#555=ORIENTED_EDGE('',*,*,#113,.T.);
#556=ORIENTED_EDGE('',*,*,#95,.T.);
#557=ORIENTED_EDGE('',*,*,#179,.T.);
#558=CARTESIAN_POINT('',(0.0,0.0,-53.0));
#559=DIRECTION('',(0.0,0.0,1.0));
#560=DIRECTION('',(-1.0,0.0,0.0));
#561=SURFACE_STYLE_FILL_AREA(#619);
#562=ORIENTED_EDGE('',*,*,#101,.F.);
#563=ORIENTED_EDGE('',*,*,#111,.F.);
#564=CARTESIAN_POINT('',(0.0,4.0,-58.0));
#565=DIRECTION('',(0.0,0.0,1.0));
#566=DIRECTION('',(0.0,-1.0,0.0));
#567=DIRECTION('',(0.0,0.0,-1.0));
#568=SURFACE_STYLE_FILL_AREA(#620);
#569=ORIENTED_EDGE('',*,*,#85,.T.);
#570=ORIENTED_EDGE('',*,*,#175,.F.);
#571=ORIENTED_EDGE('',*,*,#179,.F.);
#572=ORIENTED_EDGE('',*,*,#147,.T.);
#573=ORIENTED_EDGE('',*,*,#119,.T.);
#574=CARTESIAN_POINT('',(0.0,0.0,-0.399999999999999));
#575=DIRECTION('',(0.0,0.0,-1.0));
#576=DIRECTION('',(0.0,1.0,0.0));
#577=SURFACE_STYLE_FILL_AREA(#621);
#578=ORIENTED_EDGE('',*,*,#93,.F.);
#579=ORIENTED_EDGE('',*,*,#101,.T.);
#580=ORIENTED_EDGE('',*,*,#145,.F.);
#581=ORIENTED_EDGE('',*,*,#123,.F.);
#582=CARTESIAN_POINT('',(0.0,0.0,-73.5));
#583=DIRECTION('',(0.0,0.0,1.0));
#584=DIRECTION('',(0.0,1.0,0.0));
#585=SURFACE_STYLE_FILL_AREA(#622);
#586=ORIENTED_EDGE('',*,*,#131,.T.);
#587=ORIENTED_EDGE('',*,*,#115,.T.);
#588=CARTESIAN_POINT('',(0.0,3.5,-90.0));
#589=DIRECTION('',(0.0,0.0,-1.0));
#590=DIRECTION('',(0.0,1.0,0.0));
#591=SURFACE_STYLE_FILL_AREA(#623);
#592=ORIENTED_EDGE('',*,*,#93,.T.);
#593=ORIENTED_EDGE('',*,*,#97,.F.);
#594=ORIENTED_EDGE('',*,*,#145,.T.);
#595=ORIENTED_EDGE('',*,*,#111,.T.);
#596=CARTESIAN_POINT('',(0.0,0.0,-73.5));
#597=DIRECTION('',(0.0,0.0,1.0));
#598=DIRECTION('',(0.0,1.0,0.0));
#599=CARTESIAN_POINT('',(0.0,0.0,-0.799999999999997));
#600=DIRECTION('',(0.0,0.0,-1.0));
#601=DIRECTION('',(0.0,1.0,0.0));
#602=CARTESIAN_POINT('',(0.0,0.0,-0.799999999999997));
#603=DIRECTION('',(0.0,0.0,-1.0));
#604=DIRECTION('',(0.0,1.0,0.0));
#605=SURFACE_STYLE_FILL_AREA(#624);
#606=ORIENTED_EDGE('',*,*,#89,.F.);
#607=ORIENTED_EDGE('',*,*,#119,.F.);
#608=CARTESIAN_POINT('',(0.0,3.6,0.0));
#609=DIRECTION('',(0.0,0.0,1.0));
#610=DIRECTION('',(0.0,-1.0,0.0));
#611=FILL_AREA_STYLE('',(#625));
#612=FILL_AREA_STYLE('',(#626));
#613=FILL_AREA_STYLE('',(#627));
#614=FILL_AREA_STYLE('',(#628));
#615=FILL_AREA_STYLE('',(#629));
#616=FILL_AREA_STYLE('',(#630));
#617=FILL_AREA_STYLE('',(#631));
#618=FILL_AREA_STYLE('',(#632));
#619=FILL_AREA_STYLE('',(#633));
#620=FILL_AREA_STYLE('',(#634));
#621=FILL_AREA_STYLE('',(#635));
#622=FILL_AREA_STYLE('',(#636));
#623=FILL_AREA_STYLE('',(#637));
#624=FILL_AREA_STYLE('',(#638));
#625=FILL_AREA_STYLE_COLOUR('',#639);
#626=FILL_AREA_STYLE_COLOUR('',#640);
#627=FILL_AREA_STYLE_COLOUR('',#641);
#628=FILL_AREA_STYLE_COLOUR('',#642);
#629=FILL_AREA_STYLE_COLOUR('',#643);
#630=FILL_AREA_STYLE_COLOUR('',#644);
#631=FILL_AREA_STYLE_COLOUR('',#645);
#632=FILL_AREA_STYLE_COLOUR('',#646);
#633=FILL_AREA_STYLE_COLOUR('',#647);
#634=FILL_AREA_STYLE_COLOUR('',#648);
#635=FILL_AREA_STYLE_COLOUR('',#649);
#636=FILL_AREA_STYLE_COLOUR('',#650);
#637=FILL_AREA_STYLE_COLOUR('',#651);
#638=FILL_AREA_STYLE_COLOUR('',#652);
#639=COLOUR_RGB('',0.498039215803146,0.498039215803146,0.498039215803146);
#640=COLOUR_RGB('',0.800000011920929,0.800000011920929,0.800000011920929);
#641=COLOUR_RGB('',0.800000011920929,0.800000011920929,0.800000011920929);
#642=COLOUR_RGB('',0.498039215803146,0.498039215803146,0.498039215803146);
#643=COLOUR_RGB('',0.498039215803146,0.498039215803146,0.498039215803146);
#644=COLOUR_RGB('',0.800000011920929,0.800000011920929,0.800000011920929);
#645=COLOUR_RGB('',0.498039215803146,0.498039215803146,0.498039215803146);
#646=COLOUR_RGB('',0.498039215803146,0.498039215803146,0.498039215803146);
#647=COLOUR_RGB('',0.800000011920929,0.800000011920929,0.800000011920929);
#648=COLOUR_RGB('',0.498039215803146,0.498039215803146,0.498039215803146);
#649=COLOUR_RGB('',0.800000011920929,0.800000011920929,0.800000011920929);
#650=COLOUR_RGB('',0.800000011920929,0.800000011920929,0.800000011920929);
#651=COLOUR_RGB('',0.800000011920929,0.800000011920929,0.800000011920929);
#652=COLOUR_RGB('',0.498039215803146,0.498039215803146,0.498039215803146);
#653=AXIS2_PLACEMENT_3D('PCS',#654,#655,#656);
#654=CARTESIAN_POINT('',(0.0,0.0,0.0));
#655=DIRECTION('',(0.0,0.0,1.0));
#656=DIRECTION('',(1.0,0.0,0.0));
#657=AXIS2_PLACEMENT_3D('MCS',#658,#659,#660);
#658=CARTESIAN_POINT('',(0.0,0.0,-48.0));
#659=DIRECTION('',(0.0,0.0,1.0));
#660=DIRECTION('',(1.0,0.0,0.0));
#661=AXIS2_PLACEMENT_3D('CIP',#662,#663,#664);
#662=CARTESIAN_POINT('',(0.0,0.0,-90.0));
#663=DIRECTION('',(0.0,0.0,1.0));
#664=DIRECTION('',(1.0,0.0,0.0));
#665=CONSTRUCTIVE_GEOMETRY_REPRESENTATION_RELATIONSHIP('coordinate systems',$,#68,#666);
#666=CONSTRUCTIVE_GEOMETRY_REPRESENTATION('coordinate systems',(#653,#657,#661),#10);
ENDSEC;
END-ISO-10303-21;
