ISO-10303-21;
HEADER;
FILE_DESCRIPTION(('no description'),'unknown implementation level');
FILE_NAME('16975007-Huellk.stp','  ',('CIM GmbH Aachen'),('CADClick - KiM GmbH - www.kimweb.de'),'unknown preprocess','ACIS','unknown authorization');
FILE_SCHEMA(('automotive_design'));
ENDSEC;
DATA;
#1=MECHANICAL_DESIGN_GEOMETRIC_PRESENTATION_REPRESENTATION(' ',(#14,#15,#16,#17,#18,#19,#20,#21,#22,#23,#24,#25,#26,#27,#28,#29,#30,#31,#32,#33,#34,#35,#36,#37,#38,#39,#40,#41,#42,#43,#44,#45,#46,#47,#48,#49,#50,#51,#52,#53,#54,#55,#56,#57,#58,#59,#60,#61,#62,#63),#10);
#2=PRODUCT_DEFINITION_CONTEXT('',#64,'design');
#3=APPLICATION_PROTOCOL_DEFINITION('INTERNATIONAL STANDARD','automotive_design',1994,#64);
#4=PRODUCT_CATEGORY_RELATIONSHIP('NONE','NONE',#65,#66);
#5=SHAPE_DEFINITION_REPRESENTATION(#67,#68);
#6=PRODUCT_DEFINITION_CONTEXT('',#69,'design');
#7=APPLICATION_PROTOCOL_DEFINITION('INTERNATIONAL STANDARD','automotive_design',1994,#69);
#8=PRODUCT_CATEGORY_RELATIONSHIP('NONE','NONE',#70,#71);
#9=SHAPE_DEFINITION_REPRESENTATION(#72,#73);
#10= (GEOMETRIC_REPRESENTATION_CONTEXT(3)GLOBAL_UNCERTAINTY_ASSIGNED_CONTEXT((#76))GLOBAL_UNIT_ASSIGNED_CONTEXT((#78,#79,#80))REPRESENTATION_CONTEXT('NONE','WORKSPACE'));
#14=STYLED_ITEM('',(#82),#83);
#15=STYLED_ITEM('',(#84),#85);
#16=STYLED_ITEM('',(#86),#87);
#17=STYLED_ITEM('',(#88),#89);
#18=STYLED_ITEM('',(#90),#91);
#19=STYLED_ITEM('',(#92),#93);
#20=STYLED_ITEM('',(#94),#95);
#21=STYLED_ITEM('',(#96),#97);
#22=STYLED_ITEM('',(#98),#99);
#23=STYLED_ITEM('',(#100),#101);
#24=STYLED_ITEM('',(#102),#103);
#25=STYLED_ITEM('',(#104),#105);
#26=STYLED_ITEM('',(#106),#107);
#27=STYLED_ITEM('',(#108),#109);
#28=STYLED_ITEM('',(#110),#111);
#29=STYLED_ITEM('',(#112),#113);
#30=STYLED_ITEM('',(#114),#115);
#31=STYLED_ITEM('',(#116),#117);
#32=STYLED_ITEM('',(#118),#119);
#33=STYLED_ITEM('',(#120),#121);
#34=STYLED_ITEM('',(#122),#123);
#35=STYLED_ITEM('',(#124),#125);
#36=STYLED_ITEM('',(#126),#127);
#37=STYLED_ITEM('',(#128),#129);
#38=STYLED_ITEM('',(#130),#131);
#39=STYLED_ITEM('',(#132),#133);
#40=STYLED_ITEM('',(#134),#135);
#41=STYLED_ITEM('',(#136),#137);
#42=STYLED_ITEM('',(#138),#139);
#43=STYLED_ITEM('',(#140),#141);
#44=STYLED_ITEM('',(#142),#143);
#45=STYLED_ITEM('',(#144),#145);
#46=STYLED_ITEM('',(#146),#147);
#47=STYLED_ITEM('',(#148),#149);
#48=STYLED_ITEM('',(#150),#151);
#49=STYLED_ITEM('',(#152),#153);
#50=STYLED_ITEM('',(#154),#155);
#51=STYLED_ITEM('',(#156),#157);
#52=STYLED_ITEM('',(#158),#159);
#53=STYLED_ITEM('',(#160),#161);
#54=STYLED_ITEM('',(#162),#163);
#55=STYLED_ITEM('',(#164),#165);
#56=STYLED_ITEM('',(#166),#167);
#57=STYLED_ITEM('',(#168),#169);
#58=STYLED_ITEM('',(#170),#171);
#59=STYLED_ITEM('',(#172),#173);
#60=STYLED_ITEM('',(#174),#175);
#61=STYLED_ITEM('',(#176),#177);
#62=STYLED_ITEM('',(#178),#179);
#63=STYLED_ITEM('',(#180),#181);
#64=APPLICATION_CONTEXT(' ');
#65=PRODUCT_CATEGORY('part','NONE');
#66=PRODUCT_RELATED_PRODUCT_CATEGORY('detail',' ',(#182));
#67=PRODUCT_DEFINITION_SHAPE('NONE','NONE',#183);
#68=ADVANCED_BREP_SHAPE_REPRESENTATION('1',(#153,#184),#10);
#69=APPLICATION_CONTEXT(' ');
#70=PRODUCT_CATEGORY('part','NONE');
#71=PRODUCT_RELATED_PRODUCT_CATEGORY('detail',' ',(#185));
#72=PRODUCT_DEFINITION_SHAPE('NONE','NONE',#186);
#73=ADVANCED_BREP_SHAPE_REPRESENTATION('2',(#107,#187),#10);
#76=UNCERTAINTY_MEASURE_WITH_UNIT(LENGTH_MEASURE(1.0E-006),#78,'','');
#78= (CONVERSION_BASED_UNIT('MILLIMETRE',#190)LENGTH_UNIT()NAMED_UNIT(#193));
#79= (NAMED_UNIT(#195)PLANE_ANGLE_UNIT()SI_UNIT($,.RADIAN.));
#80= (NAMED_UNIT(#195)SOLID_ANGLE_UNIT()SI_UNIT($,.STERADIAN.));
#82=PRESENTATION_STYLE_ASSIGNMENT((#201));
#83=EDGE_CURVE('',#131,#161,#202,.T.);
#84=PRESENTATION_STYLE_ASSIGNMENT((#203));
#85=EDGE_CURVE('',#145,#151,#204,.T.);
#86=PRESENTATION_STYLE_ASSIGNMENT((#205));
#87=VERTEX_POINT('',#206);
#88=PRESENTATION_STYLE_ASSIGNMENT((#207));
#89=ADVANCED_FACE('',(#208),#209,.T.);
#90=PRESENTATION_STYLE_ASSIGNMENT((#210));
#91=EDGE_CURVE('',#137,#87,#211,.T.);
#92=PRESENTATION_STYLE_ASSIGNMENT((#212));
#93=EDGE_CURVE('',#177,#145,#213,.T.);
#94=PRESENTATION_STYLE_ASSIGNMENT((#214));
#95=EDGE_CURVE('',#173,#127,#215,.T.);
#96=PRESENTATION_STYLE_ASSIGNMENT((#216));
#97=VERTEX_POINT('',#217);
#98=PRESENTATION_STYLE_ASSIGNMENT((#218));
#99=ADVANCED_FACE('',(#219),#220,.T.);
#100=PRESENTATION_STYLE_ASSIGNMENT((#221));
#101=EDGE_CURVE('',#145,#177,#222,.T.);
#102=PRESENTATION_STYLE_ASSIGNMENT((#223));
#103=EDGE_CURVE('',#131,#109,#224,.T.);
#104=PRESENTATION_STYLE_ASSIGNMENT((#225));
#105=EDGE_CURVE('',#87,#137,#226,.T.);
#106=PRESENTATION_STYLE_ASSIGNMENT((#227));
#107=MANIFOLD_SOLID_BREP('2',#228);
#108=PRESENTATION_STYLE_ASSIGNMENT((#229));
#109=VERTEX_POINT('',#230);
#110=PRESENTATION_STYLE_ASSIGNMENT((#231));
#111=EDGE_CURVE('',#173,#163,#232,.T.);
#112=PRESENTATION_STYLE_ASSIGNMENT((#233));
#113=ADVANCED_FACE('',(#234),#235,.T.);
#114=PRESENTATION_STYLE_ASSIGNMENT((#236));
#115=EDGE_CURVE('',#151,#163,#237,.T.);
#116=PRESENTATION_STYLE_ASSIGNMENT((#238));
#117=EDGE_CURVE('',#97,#167,#239,.T.);
#118=PRESENTATION_STYLE_ASSIGNMENT((#240));
#119=ADVANCED_FACE('',(#241),#242,.T.);
#120=PRESENTATION_STYLE_ASSIGNMENT((#243));
#121=EDGE_CURVE('',#109,#131,#244,.T.);
#122=PRESENTATION_STYLE_ASSIGNMENT((#245));
#123=ADVANCED_FACE('',(#246),#247,.T.);
#124=PRESENTATION_STYLE_ASSIGNMENT((#248));
#125=VERTEX_POINT('',#249);
#126=PRESENTATION_STYLE_ASSIGNMENT((#250));
#127=VERTEX_POINT('',#251);
#128=PRESENTATION_STYLE_ASSIGNMENT((#252));
#129=ADVANCED_FACE('',(#253),#254,.T.);
#130=PRESENTATION_STYLE_ASSIGNMENT((#255));
#131=VERTEX_POINT('',#256);
#132=PRESENTATION_STYLE_ASSIGNMENT((#257));
#133=EDGE_CURVE('',#161,#173,#258,.T.);
#134=PRESENTATION_STYLE_ASSIGNMENT((#259));
#135=ADVANCED_FACE('',(#260),#261,.T.);
#136=PRESENTATION_STYLE_ASSIGNMENT((#262));
#137=VERTEX_POINT('',#263);
#138=PRESENTATION_STYLE_ASSIGNMENT((#264));
#139=EDGE_CURVE('',#97,#87,#265,.T.);
#140=PRESENTATION_STYLE_ASSIGNMENT((#266));
#141=EDGE_CURVE('',#167,#97,#267,.T.);
#142=PRESENTATION_STYLE_ASSIGNMENT((#268));
#143=EDGE_CURVE('',#127,#109,#269,.T.);
#144=PRESENTATION_STYLE_ASSIGNMENT((#270));
#145=VERTEX_POINT('',#271);
#146=PRESENTATION_STYLE_ASSIGNMENT((#272));
#147=ADVANCED_FACE('',(#273),#274,.T.);
#148=PRESENTATION_STYLE_ASSIGNMENT((#275));
#149=EDGE_CURVE('',#137,#167,#276,.T.);
#150=PRESENTATION_STYLE_ASSIGNMENT((#277));
#151=VERTEX_POINT('',#278);
#152=PRESENTATION_STYLE_ASSIGNMENT((#279));
#153=MANIFOLD_SOLID_BREP('1',#280);
#154=PRESENTATION_STYLE_ASSIGNMENT((#281));
#155=ADVANCED_FACE('',(#282),#283,.T.);
#156=PRESENTATION_STYLE_ASSIGNMENT((#284));
#157=ADVANCED_FACE('',(#285),#286,.T.);
#158=PRESENTATION_STYLE_ASSIGNMENT((#287));
#159=EDGE_CURVE('',#127,#125,#288,.T.);
#160=PRESENTATION_STYLE_ASSIGNMENT((#289));
#161=VERTEX_POINT('',#290);
#162=PRESENTATION_STYLE_ASSIGNMENT((#291));
#163=VERTEX_POINT('',#292);
#164=PRESENTATION_STYLE_ASSIGNMENT((#293));
#165=EDGE_CURVE('',#163,#151,#294,.T.);
#166=PRESENTATION_STYLE_ASSIGNMENT((#295));
#167=VERTEX_POINT('',#296);
#168=PRESENTATION_STYLE_ASSIGNMENT((#297));
#169=EDGE_CURVE('',#125,#161,#298,.T.);
#170=PRESENTATION_STYLE_ASSIGNMENT((#299));
#171=EDGE_CURVE('',#163,#177,#300,.T.);
#172=PRESENTATION_STYLE_ASSIGNMENT((#301));
#173=VERTEX_POINT('',#302);
#174=PRESENTATION_STYLE_ASSIGNMENT((#303));
#175=EDGE_CURVE('',#151,#125,#304,.T.);
#176=PRESENTATION_STYLE_ASSIGNMENT((#305));
#177=VERTEX_POINT('',#306);
#178=PRESENTATION_STYLE_ASSIGNMENT((#307));
#179=ADVANCED_FACE('',(#308),#309,.T.);
#180=PRESENTATION_STYLE_ASSIGNMENT((#310));
#181=ADVANCED_FACE('',(#311),#312,.T.);
#182=PRODUCT('1','1','PART-1-DESC',(#313));
#183=PRODUCT_DEFINITION('NONE','NONE',#314,#2);
#184=AXIS2_PLACEMENT_3D('',#315,#316,#317);
#185=PRODUCT('2','2','PART-2-DESC',(#318));
#186=PRODUCT_DEFINITION('NONE','NONE',#319,#6);
#187=AXIS2_PLACEMENT_3D('',#320,#321,#322);
#190=LENGTH_MEASURE_WITH_UNIT(LENGTH_MEASURE(1.0),#323);
#193=DIMENSIONAL_EXPONENTS(1.0,0.0,0.0,0.0,0.0,0.0,0.0);
#195=DIMENSIONAL_EXPONENTS(0.0,0.0,0.0,0.0,0.0,0.0,0.0);
#201=CURVE_STYLE('',#324,POSITIVE_LENGTH_MEASURE(1.0E-006),#325);
#202=LINE('',#326,#327);
#203=CURVE_STYLE('',#328,POSITIVE_LENGTH_MEASURE(1.0E-006),#329);
#204=LINE('',#330,#331);
#205=POINT_STYLE(' ',#332,POSITIVE_LENGTH_MEASURE(1.0E-006),#333);
#206=CARTESIAN_POINT('',(4.28612223837832E-017,-0.35,-38.4));
#207=SURFACE_STYLE_USAGE(.BOTH.,#334);
#208=FACE_OUTER_BOUND('',#335,.T.);
#209=CONICAL_SURFACE('',#336,1.85,0.785398163397447);
#210=CURVE_STYLE('',#337,POSITIVE_LENGTH_MEASURE(1.0E-006),#338);
#211=CIRCLE('',#339,0.35);
#212=CURVE_STYLE('',#340,POSITIVE_LENGTH_MEASURE(1.0E-006),#341);
#213=CIRCLE('',#342,1.7);
#214=CURVE_STYLE('',#343,POSITIVE_LENGTH_MEASURE(1.0E-006),#344);
#215=CIRCLE('',#345,2.0);
#216=POINT_STYLE(' ',#346,POSITIVE_LENGTH_MEASURE(1.0E-006),#347);
#217=CARTESIAN_POINT('',(4.28612223837832E-017,-0.35,-40.0));
#218=SURFACE_STYLE_USAGE(.BOTH.,#348);
#219=FACE_OUTER_BOUND('',#349,.T.);
#220=PLANE('',#350);
#221=CURVE_STYLE('',#351,POSITIVE_LENGTH_MEASURE(1.0E-006),#352);
#222=CIRCLE('',#353,1.7);
#223=CURVE_STYLE('',#354,POSITIVE_LENGTH_MEASURE(1.0E-006),#355);
#224=CIRCLE('',#356,0.35);
#225=CURVE_STYLE('',#357,POSITIVE_LENGTH_MEASURE(1.0E-006),#358);
#226=CIRCLE('',#359,0.35);
#227=SURFACE_STYLE_USAGE(.BOTH.,#360);
#228=CLOSED_SHELL('',(#113,#179,#181,#99));
#229=POINT_STYLE(' ',#361,POSITIVE_LENGTH_MEASURE(1.0E-006),#362);
#230=CARTESIAN_POINT('',(-0.35,0.0,-38.4));
#231=CURVE_STYLE('',#363,POSITIVE_LENGTH_MEASURE(1.0E-006),#364);
#232=LINE('',#365,#366);
#233=SURFACE_STYLE_USAGE(.BOTH.,#367);
#234=FACE_OUTER_BOUND('',#368,.T.);
#235=CYLINDRICAL_SURFACE('',#369,0.35);
#236=CURVE_STYLE('',#370,POSITIVE_LENGTH_MEASURE(1.0E-006),#371);
#237=CIRCLE('',#372,2.0);
#238=CURVE_STYLE('',#373,POSITIVE_LENGTH_MEASURE(1.0E-006),#374);
#239=CIRCLE('',#375,0.35);
#240=SURFACE_STYLE_USAGE(.BOTH.,#376);
#241=FACE_OUTER_BOUND('',#377,.T.);
#242=CONICAL_SURFACE('',#378,1.175,0.261794671671423);
#243=CURVE_STYLE('',#379,POSITIVE_LENGTH_MEASURE(1.0E-006),#380);
#244=CIRCLE('',#381,0.35);
#245=SURFACE_STYLE_USAGE(.BOTH.,#382);
#246=FACE_OUTER_BOUND('',#383,.T.);
#247=CYLINDRICAL_SURFACE('',#384,2.0);
#248=POINT_STYLE(' ',#385,POSITIVE_LENGTH_MEASURE(1.0E-006),#386);
#249=CARTESIAN_POINT('',(-2.44921270764475E-016,2.0,-32.242));
#250=POINT_STYLE(' ',#387,POSITIVE_LENGTH_MEASURE(1.0E-006),#388);
#251=CARTESIAN_POINT('',(-2.0,0.0,-32.242));
#252=SURFACE_STYLE_USAGE(.BOTH.,#389);
#253=FACE_OUTER_BOUND('',#390,.T.);
#254=CONICAL_SURFACE('',#391,1.175,0.261794671671423);
#255=POINT_STYLE(' ',#392,POSITIVE_LENGTH_MEASURE(1.0E-006),#393);
#256=CARTESIAN_POINT('',(0.35,4.28612223837832E-017,-38.4));
#257=CURVE_STYLE('',#394,POSITIVE_LENGTH_MEASURE(1.0E-006),#395);
#258=CIRCLE('',#396,2.0);
#259=SURFACE_STYLE_USAGE(.BOTH.,#397);
#260=FACE_OUTER_BOUND('',#398,.T.);
#261=CONICAL_SURFACE('',#399,1.85,0.785398163397447);
#262=POINT_STYLE(' ',#400,POSITIVE_LENGTH_MEASURE(1.0E-006),#401);
#263=CARTESIAN_POINT('',(0.0,0.35,-38.4));
#264=CURVE_STYLE('',#402,POSITIVE_LENGTH_MEASURE(1.0E-006),#403);
#265=LINE('',#404,#405);
#266=CURVE_STYLE('',#406,POSITIVE_LENGTH_MEASURE(1.0E-006),#407);
#267=CIRCLE('',#408,0.35);
#268=CURVE_STYLE('',#409,POSITIVE_LENGTH_MEASURE(1.0E-006),#410);
#269=LINE('',#411,#412);
#270=POINT_STYLE(' ',#413,POSITIVE_LENGTH_MEASURE(1.0E-006),#414);
#271=CARTESIAN_POINT('',(0.0,1.7,0.0));
#272=SURFACE_STYLE_USAGE(.BOTH.,#415);
#273=FACE_OUTER_BOUND('',#416,.T.);
#274=CYLINDRICAL_SURFACE('',#417,2.0);
#275=CURVE_STYLE('',#418,POSITIVE_LENGTH_MEASURE(1.0E-006),#419);
#276=LINE('',#420,#421);
#277=POINT_STYLE(' ',#422,POSITIVE_LENGTH_MEASURE(1.0E-006),#423);
#278=CARTESIAN_POINT('',(0.0,2.0,-0.300000000000001));
#279=SURFACE_STYLE_USAGE(.BOTH.,#424);
#280=CLOSED_SHELL('',(#129,#123,#89,#155,#135,#147,#119,#157));
#281=SURFACE_STYLE_USAGE(.BOTH.,#425);
#282=FACE_OUTER_BOUND('',#426,.T.);
#283=PLANE('',#427);
#284=SURFACE_STYLE_USAGE(.BOTH.,#428);
#285=FACE_OUTER_BOUND('',#429,.T.);
#286=PLANE('',#430);
#287=CURVE_STYLE('',#431,POSITIVE_LENGTH_MEASURE(1.0E-006),#432);
#288=CIRCLE('',#433,2.0);
#289=POINT_STYLE(' ',#434,POSITIVE_LENGTH_MEASURE(1.0E-006),#435);
#290=CARTESIAN_POINT('',(2.0,2.44921270764475E-016,-32.242));
#291=POINT_STYLE(' ',#436,POSITIVE_LENGTH_MEASURE(1.0E-006),#437);
#292=CARTESIAN_POINT('',(2.44921270764475E-016,-2.0,-0.300000000000001));
#293=CURVE_STYLE('',#438,POSITIVE_LENGTH_MEASURE(1.0E-006),#439);
#294=CIRCLE('',#440,2.0);
#295=POINT_STYLE(' ',#441,POSITIVE_LENGTH_MEASURE(1.0E-006),#442);
#296=CARTESIAN_POINT('',(0.0,0.35,-40.0));
#297=CURVE_STYLE('',#443,POSITIVE_LENGTH_MEASURE(1.0E-006),#444);
#298=CIRCLE('',#445,2.0);
#299=CURVE_STYLE('',#446,POSITIVE_LENGTH_MEASURE(1.0E-006),#447);
#300=LINE('',#448,#449);
#301=POINT_STYLE(' ',#450,POSITIVE_LENGTH_MEASURE(1.0E-006),#451);
#302=CARTESIAN_POINT('',(2.44921270764475E-016,-2.0,-32.242));
#303=CURVE_STYLE('',#452,POSITIVE_LENGTH_MEASURE(1.0E-006),#453);
#304=LINE('',#454,#455);
#305=POINT_STYLE(' ',#456,POSITIVE_LENGTH_MEASURE(1.0E-006),#457);
#306=CARTESIAN_POINT('',(2.08183080149804E-016,-1.7,0.0));
#307=SURFACE_STYLE_USAGE(.BOTH.,#458);
#308=FACE_OUTER_BOUND('',#459,.T.);
#309=PLANE('',#460);
#310=SURFACE_STYLE_USAGE(.BOTH.,#461);
#311=FACE_OUTER_BOUND('',#462,.T.);
#312=CYLINDRICAL_SURFACE('',#463,0.35);
#313=PRODUCT_CONTEXT('',#64,'mechanical');
#314=PRODUCT_DEFINITION_FORMATION_WITH_SPECIFIED_SOURCE(' ','NONE',#182,.NOT_KNOWN.);
#315=CARTESIAN_POINT('',(0.0,0.0,0.0));
#316=DIRECTION('',(0.0,0.0,1.0));
#317=DIRECTION('',(1.0,0.0,0.0));
#318=PRODUCT_CONTEXT('',#69,'mechanical');
#319=PRODUCT_DEFINITION_FORMATION_WITH_SPECIFIED_SOURCE(' ','NONE',#185,.NOT_KNOWN.);
#320=CARTESIAN_POINT('',(0.0,0.0,0.0));
#321=DIRECTION('',(0.0,0.0,1.0));
#322=DIRECTION('',(1.0,0.0,0.0));
#323= (NAMED_UNIT(#193)LENGTH_UNIT()SI_UNIT(.MILLI.,.METRE.));
#324=DRAUGHTING_PRE_DEFINED_CURVE_FONT('continuous');
#325=COLOUR_RGB('',0.498039215803146,0.498039215803146,0.498039215803146);
#326=CARTESIAN_POINT('',(1.175,1.43891246574129E-016,-35.321));
#327=VECTOR('',#465,1.0);
#328=DRAUGHTING_PRE_DEFINED_CURVE_FONT('continuous');
#329=COLOUR_RGB('',0.498039215803146,0.498039215803146,0.498039215803146);
#330=CARTESIAN_POINT('',(-2.2655217545714E-016,1.85,-0.150000000000002));
#331=VECTOR('',#466,1.0);
#332=PRE_DEFINED_MARKER('');
#333=COLOUR_RGB('',0.800000011920929,0.800000011920929,0.800000011920929);
#334=SURFACE_SIDE_STYLE('',(#467));
#335=EDGE_LOOP('',(#468,#469,#470,#471));
#336=AXIS2_PLACEMENT_3D('',#472,#473,#474);
#337=DRAUGHTING_PRE_DEFINED_CURVE_FONT('continuous');
#338=COLOUR_RGB('',0.800000011920929,0.800000011920929,0.800000011920929);
#339=AXIS2_PLACEMENT_3D('',#475,#476,#477);
#340=DRAUGHTING_PRE_DEFINED_CURVE_FONT('continuous');
#341=COLOUR_RGB('',0.498039215803146,0.498039215803146,0.498039215803146);
#342=AXIS2_PLACEMENT_3D('',#478,#479,#480);
#343=DRAUGHTING_PRE_DEFINED_CURVE_FONT('continuous');
#344=COLOUR_RGB('',0.498039215803146,0.498039215803146,0.498039215803146);
#345=AXIS2_PLACEMENT_3D('',#481,#482,#483);
#346=PRE_DEFINED_MARKER('');
#347=COLOUR_RGB('',0.800000011920929,0.800000011920929,0.800000011920929);
#348=SURFACE_SIDE_STYLE('',(#484));
#349=EDGE_LOOP('',(#485,#486));
#350=AXIS2_PLACEMENT_3D('',#487,#488,#489);
#351=DRAUGHTING_PRE_DEFINED_CURVE_FONT('continuous');
#352=COLOUR_RGB('',0.498039215803146,0.498039215803146,0.498039215803146);
#353=AXIS2_PLACEMENT_3D('',#490,#491,#492);
#354=DRAUGHTING_PRE_DEFINED_CURVE_FONT('continuous');
#355=COLOUR_RGB('',0.498039215803146,0.498039215803146,0.498039215803146);
#356=AXIS2_PLACEMENT_3D('',#493,#494,#495);
#357=DRAUGHTING_PRE_DEFINED_CURVE_FONT('continuous');
#358=COLOUR_RGB('',0.800000011920929,0.800000011920929,0.800000011920929);
#359=AXIS2_PLACEMENT_3D('',#496,#497,#498);
#360=SURFACE_SIDE_STYLE('',(#499));
#361=PRE_DEFINED_MARKER('');
#362=COLOUR_RGB('',0.498039215803146,0.498039215803146,0.498039215803146);
#363=DRAUGHTING_PRE_DEFINED_CURVE_FONT('continuous');
#364=COLOUR_RGB('',0.498039215803146,0.498039215803146,0.498039215803146);
#365=CARTESIAN_POINT('',(2.44921270764475E-016,-2.0,-14.15));
#366=VECTOR('',#500,1.0);
#367=SURFACE_SIDE_STYLE('',(#501));
#368=EDGE_LOOP('',(#502,#503,#504,#505));
#369=AXIS2_PLACEMENT_3D('',#506,#507,#508);
#370=DRAUGHTING_PRE_DEFINED_CURVE_FONT('continuous');
#371=COLOUR_RGB('',0.498039215803146,0.498039215803146,0.498039215803146);
#372=AXIS2_PLACEMENT_3D('',#509,#510,#511);
#373=DRAUGHTING_PRE_DEFINED_CURVE_FONT('continuous');
#374=COLOUR_RGB('',0.800000011920929,0.800000011920929,0.800000011920929);
#375=AXIS2_PLACEMENT_3D('',#512,#513,#514);
#376=SURFACE_SIDE_STYLE('',(#515));
#377=EDGE_LOOP('',(#516,#517,#518,#519,#520));
#378=AXIS2_PLACEMENT_3D('',#521,#522,#523);
#379=DRAUGHTING_PRE_DEFINED_CURVE_FONT('continuous');
#380=COLOUR_RGB('',0.498039215803146,0.498039215803146,0.498039215803146);
#381=AXIS2_PLACEMENT_3D('',#524,#525,#526);
#382=SURFACE_SIDE_STYLE('',(#527));
#383=EDGE_LOOP('',(#528,#529,#530,#531,#532));
#384=AXIS2_PLACEMENT_3D('',#533,#534,#535);
#385=PRE_DEFINED_MARKER('');
#386=COLOUR_RGB('',0.498039215803146,0.498039215803146,0.498039215803146);
#387=PRE_DEFINED_MARKER('');
#388=COLOUR_RGB('',0.498039215803146,0.498039215803146,0.498039215803146);
#389=SURFACE_SIDE_STYLE('',(#536));
#390=EDGE_LOOP('',(#537,#538,#539,#540,#541));
#391=AXIS2_PLACEMENT_3D('',#542,#543,#544);
#392=PRE_DEFINED_MARKER('');
#393=COLOUR_RGB('',0.498039215803146,0.498039215803146,0.498039215803146);
#394=DRAUGHTING_PRE_DEFINED_CURVE_FONT('continuous');
#395=COLOUR_RGB('',0.498039215803146,0.498039215803146,0.498039215803146);
#396=AXIS2_PLACEMENT_3D('',#545,#546,#547);
#397=SURFACE_SIDE_STYLE('',(#548));
#398=EDGE_LOOP('',(#549,#550,#551,#552));
#399=AXIS2_PLACEMENT_3D('',#553,#554,#555);
#400=PRE_DEFINED_MARKER('');
#401=COLOUR_RGB('',0.800000011920929,0.800000011920929,0.800000011920929);
#402=DRAUGHTING_PRE_DEFINED_CURVE_FONT('continuous');
#403=COLOUR_RGB('',0.800000011920929,0.800000011920929,0.800000011920929);
#404=CARTESIAN_POINT('',(4.28612223837832E-017,-0.35,-39.2));
#405=VECTOR('',#556,1.0);
#406=DRAUGHTING_PRE_DEFINED_CURVE_FONT('continuous');
#407=COLOUR_RGB('',0.800000011920929,0.800000011920929,0.800000011920929);
#408=AXIS2_PLACEMENT_3D('',#557,#558,#559);
#409=DRAUGHTING_PRE_DEFINED_CURVE_FONT('continuous');
#410=COLOUR_RGB('',0.498039215803146,0.498039215803146,0.498039215803146);
#411=CARTESIAN_POINT('',(-1.175,-1.43891246574129E-016,-35.321));
#412=VECTOR('',#560,1.0);
#413=PRE_DEFINED_MARKER('');
#414=COLOUR_RGB('',0.498039215803146,0.498039215803146,0.498039215803146);
#415=SURFACE_SIDE_STYLE('',(#561));
#416=EDGE_LOOP('',(#562,#563,#564,#565,#566));
#417=AXIS2_PLACEMENT_3D('',#567,#568,#569);
#418=DRAUGHTING_PRE_DEFINED_CURVE_FONT('continuous');
#419=COLOUR_RGB('',0.800000011920929,0.800000011920929,0.800000011920929);
#420=CARTESIAN_POINT('',(-4.28612223837832E-017,0.35,-39.2));
#421=VECTOR('',#570,1.0);
#422=PRE_DEFINED_MARKER('');
#423=COLOUR_RGB('',0.498039215803146,0.498039215803146,0.498039215803146);
#424=SURFACE_SIDE_STYLE('',(#571));
#425=SURFACE_SIDE_STYLE('',(#572));
#426=EDGE_LOOP('',(#573,#574));
#427=AXIS2_PLACEMENT_3D('',#575,#576,#577);
#428=SURFACE_SIDE_STYLE('',(#578));
#429=EDGE_LOOP('',(#579,#580));
#430=AXIS2_PLACEMENT_3D('',#581,#582,#583);
#431=DRAUGHTING_PRE_DEFINED_CURVE_FONT('continuous');
#432=COLOUR_RGB('',0.498039215803146,0.498039215803146,0.498039215803146);
#433=AXIS2_PLACEMENT_3D('',#584,#585,#586);
#434=PRE_DEFINED_MARKER('');
#435=COLOUR_RGB('',0.498039215803146,0.498039215803146,0.498039215803146);
#436=PRE_DEFINED_MARKER('');
#437=COLOUR_RGB('',0.498039215803146,0.498039215803146,0.498039215803146);
#438=DRAUGHTING_PRE_DEFINED_CURVE_FONT('continuous');
#439=COLOUR_RGB('',0.498039215803146,0.498039215803146,0.498039215803146);
#440=AXIS2_PLACEMENT_3D('',#587,#588,#589);
#441=PRE_DEFINED_MARKER('');
#442=COLOUR_RGB('',0.800000011920929,0.800000011920929,0.800000011920929);
#443=DRAUGHTING_PRE_DEFINED_CURVE_FONT('continuous');
#444=COLOUR_RGB('',0.498039215803146,0.498039215803146,0.498039215803146);
#445=AXIS2_PLACEMENT_3D('',#590,#591,#592);
#446=DRAUGHTING_PRE_DEFINED_CURVE_FONT('continuous');
#447=COLOUR_RGB('',0.498039215803146,0.498039215803146,0.498039215803146);
#448=CARTESIAN_POINT('',(2.2655217545714E-016,-1.85,-0.150000000000002));
#449=VECTOR('',#593,1.0);
#450=PRE_DEFINED_MARKER('');
#451=COLOUR_RGB('',0.498039215803146,0.498039215803146,0.498039215803146);
#452=DRAUGHTING_PRE_DEFINED_CURVE_FONT('continuous');
#453=COLOUR_RGB('',0.498039215803146,0.498039215803146,0.498039215803146);
#454=CARTESIAN_POINT('',(-2.44921270764475E-016,2.0,-14.15));
#455=VECTOR('',#594,1.0);
#456=PRE_DEFINED_MARKER('');
#457=COLOUR_RGB('',0.498039215803146,0.498039215803146,0.498039215803146);
#458=SURFACE_SIDE_STYLE('',(#595));
#459=EDGE_LOOP('',(#596,#597));
#460=AXIS2_PLACEMENT_3D('',#598,#599,#600);
#461=SURFACE_SIDE_STYLE('',(#601));
#462=EDGE_LOOP('',(#602,#603,#604,#605));
#463=AXIS2_PLACEMENT_3D('',#606,#607,#608);
#465=DIRECTION('',(0.258814489670072,3.16945868511266E-017,0.965927046902001));
#466=DIRECTION('',(-8.65927457071934E-017,0.707106781186546,-0.707106781186549));
#467=SURFACE_STYLE_FILL_AREA(#609);
#468=ORIENTED_EDGE('',*,*,#85,.F.);
#469=ORIENTED_EDGE('',*,*,#101,.T.);
#470=ORIENTED_EDGE('',*,*,#171,.F.);
#471=ORIENTED_EDGE('',*,*,#115,.F.);
#472=CARTESIAN_POINT('',(0.0,0.0,-0.150000000000002));
#473=DIRECTION('',(0.0,0.0,-1.0));
#474=DIRECTION('',(0.0,1.0,0.0));
#475=CARTESIAN_POINT('',(0.0,0.0,-38.4));
#476=DIRECTION('',(0.0,0.0,-1.0));
#477=DIRECTION('',(0.0,1.0,0.0));
#478=CARTESIAN_POINT('',(0.0,0.0,0.0));
#479=DIRECTION('',(0.0,0.0,-1.0));
#480=DIRECTION('',(0.0,1.0,0.0));
#481=CARTESIAN_POINT('',(0.0,0.0,-32.242));
#482=DIRECTION('',(0.0,0.0,-1.0));
#483=DIRECTION('',(-1.0,0.0,0.0));
#484=SURFACE_STYLE_FILL_AREA(#610);
#485=ORIENTED_EDGE('',*,*,#141,.T.);
#486=ORIENTED_EDGE('',*,*,#117,.T.);
#487=CARTESIAN_POINT('',(0.0,0.175,-40.0));
#488=DIRECTION('',(0.0,0.0,-1.0));
#489=DIRECTION('',(0.0,1.0,0.0));
#490=CARTESIAN_POINT('',(0.0,0.0,0.0));
#491=DIRECTION('',(0.0,0.0,-1.0));
#492=DIRECTION('',(0.0,1.0,0.0));
#493=CARTESIAN_POINT('',(0.0,0.0,-38.4));
#494=DIRECTION('',(0.0,0.0,-1.0));
#495=DIRECTION('',(-1.0,0.0,0.0));
#496=CARTESIAN_POINT('',(0.0,0.0,-38.4));
#497=DIRECTION('',(0.0,0.0,-1.0));
#498=DIRECTION('',(0.0,1.0,0.0));
#499=SURFACE_STYLE_FILL_AREA(#611);
#500=DIRECTION('',(0.0,0.0,1.0));
#501=SURFACE_STYLE_FILL_AREA(#612);
#502=ORIENTED_EDGE('',*,*,#149,.F.);
#503=ORIENTED_EDGE('',*,*,#91,.T.);
#504=ORIENTED_EDGE('',*,*,#139,.F.);
#505=ORIENTED_EDGE('',*,*,#141,.F.);
#506=CARTESIAN_POINT('',(0.0,0.0,-39.2));
#507=DIRECTION('',(0.0,0.0,1.0));
#508=DIRECTION('',(0.0,1.0,0.0));
#509=CARTESIAN_POINT('',(0.0,0.0,-0.300000000000001));
#510=DIRECTION('',(0.0,0.0,-1.0));
#511=DIRECTION('',(0.0,1.0,0.0));
#512=CARTESIAN_POINT('',(0.0,0.0,-40.0));
#513=DIRECTION('',(0.0,0.0,-1.0));
#514=DIRECTION('',(0.0,1.0,0.0));
#515=SURFACE_STYLE_FILL_AREA(#613);
#516=ORIENTED_EDGE('',*,*,#143,.T.);
#517=ORIENTED_EDGE('',*,*,#103,.F.);
#518=ORIENTED_EDGE('',*,*,#83,.T.);
#519=ORIENTED_EDGE('',*,*,#133,.T.);
#520=ORIENTED_EDGE('',*,*,#95,.T.);
#521=CARTESIAN_POINT('',(0.0,0.0,-35.321));
#522=DIRECTION('',(0.0,0.0,1.0));
#523=DIRECTION('',(-1.0,0.0,0.0));
#524=CARTESIAN_POINT('',(0.0,0.0,-38.4));
#525=DIRECTION('',(0.0,0.0,-1.0));
#526=DIRECTION('',(-1.0,0.0,0.0));
#527=SURFACE_STYLE_FILL_AREA(#614);
#528=ORIENTED_EDGE('',*,*,#175,.F.);
#529=ORIENTED_EDGE('',*,*,#115,.T.);
#530=ORIENTED_EDGE('',*,*,#111,.F.);
#531=ORIENTED_EDGE('',*,*,#133,.F.);
#532=ORIENTED_EDGE('',*,*,#169,.F.);
#533=CARTESIAN_POINT('',(0.0,0.0,-14.15));
#534=DIRECTION('',(0.0,0.0,1.0));
#535=DIRECTION('',(0.0,1.0,0.0));
#536=SURFACE_STYLE_FILL_AREA(#615);
#537=ORIENTED_EDGE('',*,*,#143,.F.);
#538=ORIENTED_EDGE('',*,*,#159,.T.);
#539=ORIENTED_EDGE('',*,*,#169,.T.);
#540=ORIENTED_EDGE('',*,*,#83,.F.);
#541=ORIENTED_EDGE('',*,*,#121,.F.);
#542=CARTESIAN_POINT('',(0.0,0.0,-35.321));
#543=DIRECTION('',(0.0,0.0,1.0));
#544=DIRECTION('',(-1.0,0.0,0.0));
#545=CARTESIAN_POINT('',(0.0,0.0,-32.242));
#546=DIRECTION('',(0.0,0.0,-1.0));
#547=DIRECTION('',(-1.0,0.0,0.0));
#548=SURFACE_STYLE_FILL_AREA(#616);
#549=ORIENTED_EDGE('',*,*,#85,.T.);
#550=ORIENTED_EDGE('',*,*,#165,.F.);
#551=ORIENTED_EDGE('',*,*,#171,.T.);
#552=ORIENTED_EDGE('',*,*,#93,.T.);
#553=CARTESIAN_POINT('',(0.0,0.0,-0.150000000000002));
#554=DIRECTION('',(0.0,0.0,-1.0));
#555=DIRECTION('',(0.0,1.0,0.0));
#556=DIRECTION('',(0.0,0.0,1.0));
#557=CARTESIAN_POINT('',(0.0,0.0,-40.0));
#558=DIRECTION('',(0.0,0.0,-1.0));
#559=DIRECTION('',(0.0,1.0,0.0));
#560=DIRECTION('',(0.258814489670072,3.16945868511266E-017,-0.965927046902001));
#561=SURFACE_STYLE_FILL_AREA(#617);
#562=ORIENTED_EDGE('',*,*,#175,.T.);
#563=ORIENTED_EDGE('',*,*,#159,.F.);
#564=ORIENTED_EDGE('',*,*,#95,.F.);
#565=ORIENTED_EDGE('',*,*,#111,.T.);
#566=ORIENTED_EDGE('',*,*,#165,.T.);
#567=CARTESIAN_POINT('',(0.0,0.0,-14.15));
#568=DIRECTION('',(0.0,0.0,1.0));
#569=DIRECTION('',(0.0,1.0,0.0));
#570=DIRECTION('',(0.0,0.0,-1.0));
#571=SURFACE_STYLE_FILL_AREA(#618);
#572=SURFACE_STYLE_FILL_AREA(#619);
#573=ORIENTED_EDGE('',*,*,#101,.F.);
#574=ORIENTED_EDGE('',*,*,#93,.F.);
#575=CARTESIAN_POINT('',(0.0,0.85,0.0));
#576=DIRECTION('',(0.0,0.0,1.0));
#577=DIRECTION('',(0.0,-1.0,0.0));
#578=SURFACE_STYLE_FILL_AREA(#620);
#579=ORIENTED_EDGE('',*,*,#121,.T.);
#580=ORIENTED_EDGE('',*,*,#103,.T.);
#581=CARTESIAN_POINT('',(-0.175,0.0,-38.4));
#582=DIRECTION('',(0.0,0.0,-1.0));
#583=DIRECTION('',(-1.0,0.0,0.0));
#584=CARTESIAN_POINT('',(0.0,0.0,-32.242));
#585=DIRECTION('',(0.0,0.0,-1.0));
#586=DIRECTION('',(-1.0,0.0,0.0));
#587=CARTESIAN_POINT('',(0.0,0.0,-0.300000000000001));
#588=DIRECTION('',(0.0,0.0,-1.0));
#589=DIRECTION('',(0.0,1.0,0.0));
#590=CARTESIAN_POINT('',(0.0,0.0,-32.242));
#591=DIRECTION('',(0.0,0.0,-1.0));
#592=DIRECTION('',(-1.0,0.0,0.0));
#593=DIRECTION('',(-8.65927457071934E-017,0.707106781186546,0.707106781186549));
#594=DIRECTION('',(0.0,0.0,-1.0));
#595=SURFACE_STYLE_FILL_AREA(#621);
#596=ORIENTED_EDGE('',*,*,#91,.F.);
#597=ORIENTED_EDGE('',*,*,#105,.F.);
#598=CARTESIAN_POINT('',(0.0,0.175,-38.4));
#599=DIRECTION('',(0.0,0.0,1.0));
#600=DIRECTION('',(0.0,-1.0,0.0));
#601=SURFACE_STYLE_FILL_AREA(#622);
#602=ORIENTED_EDGE('',*,*,#149,.T.);
#603=ORIENTED_EDGE('',*,*,#117,.F.);
#604=ORIENTED_EDGE('',*,*,#139,.T.);
#605=ORIENTED_EDGE('',*,*,#105,.T.);
#606=CARTESIAN_POINT('',(0.0,0.0,-39.2));
#607=DIRECTION('',(0.0,0.0,1.0));
#608=DIRECTION('',(0.0,1.0,0.0));
#609=FILL_AREA_STYLE('',(#623));
#610=FILL_AREA_STYLE('',(#624));
#611=FILL_AREA_STYLE('',(#625));
#612=FILL_AREA_STYLE('',(#626));
#613=FILL_AREA_STYLE('',(#627));
#614=FILL_AREA_STYLE('',(#628));
#615=FILL_AREA_STYLE('',(#629));
#616=FILL_AREA_STYLE('',(#630));
#617=FILL_AREA_STYLE('',(#631));
#618=FILL_AREA_STYLE('',(#632));
#619=FILL_AREA_STYLE('',(#633));
#620=FILL_AREA_STYLE('',(#634));
#621=FILL_AREA_STYLE('',(#635));
#622=FILL_AREA_STYLE('',(#636));
#623=FILL_AREA_STYLE_COLOUR('',#637);
#624=FILL_AREA_STYLE_COLOUR('',#638);
#625=FILL_AREA_STYLE_COLOUR('',#639);
#626=FILL_AREA_STYLE_COLOUR('',#640);
#627=FILL_AREA_STYLE_COLOUR('',#641);
#628=FILL_AREA_STYLE_COLOUR('',#642);
#629=FILL_AREA_STYLE_COLOUR('',#643);
#630=FILL_AREA_STYLE_COLOUR('',#644);
#631=FILL_AREA_STYLE_COLOUR('',#645);
#632=FILL_AREA_STYLE_COLOUR('',#646);
#633=FILL_AREA_STYLE_COLOUR('',#647);
#634=FILL_AREA_STYLE_COLOUR('',#648);
#635=FILL_AREA_STYLE_COLOUR('',#649);
#636=FILL_AREA_STYLE_COLOUR('',#650);
#637=COLOUR_RGB('',0.498039215803146,0.498039215803146,0.498039215803146);
#638=COLOUR_RGB('',0.800000011920929,0.800000011920929,0.800000011920929);
#639=COLOUR_RGB('',0.800000011920929,0.800000011920929,0.800000011920929);
#640=COLOUR_RGB('',0.800000011920929,0.800000011920929,0.800000011920929);
#641=COLOUR_RGB('',0.498039215803146,0.498039215803146,0.498039215803146);
#642=COLOUR_RGB('',0.498039215803146,0.498039215803146,0.498039215803146);
#643=COLOUR_RGB('',0.498039215803146,0.498039215803146,0.498039215803146);
#644=COLOUR_RGB('',0.498039215803146,0.498039215803146,0.498039215803146);
#645=COLOUR_RGB('',0.498039215803146,0.498039215803146,0.498039215803146);
#646=COLOUR_RGB('',0.498039215803146,0.498039215803146,0.498039215803146);
#647=COLOUR_RGB('',0.498039215803146,0.498039215803146,0.498039215803146);
#648=COLOUR_RGB('',0.498039215803146,0.498039215803146,0.498039215803146);
#649=COLOUR_RGB('',0.800000011920929,0.800000011920929,0.800000011920929);
#650=COLOUR_RGB('',0.800000011920929,0.800000011920929,0.800000011920929);
#651=AXIS2_PLACEMENT_3D('PCS',#652,#653,#654);
#652=CARTESIAN_POINT('',(0.0,0.0,0.0));
#653=DIRECTION('',(0.0,0.0,1.0));
#654=DIRECTION('',(1.0,0.0,0.0));
#655=AXIS2_PLACEMENT_3D('MCS',#656,#657,#658);
#656=CARTESIAN_POINT('',(0.0,0.0,-28.0));
#657=DIRECTION('',(0.0,0.0,1.0));
#658=DIRECTION('',(1.0,0.0,0.0));
#659=AXIS2_PLACEMENT_3D('CIP',#660,#661,#662);
#660=CARTESIAN_POINT('',(0.0,0.0,-40.0));
#661=DIRECTION('',(0.0,0.0,1.0));
#662=DIRECTION('',(1.0,0.0,0.0));
#663=CONSTRUCTIVE_GEOMETRY_REPRESENTATION_RELATIONSHIP('coordinate systems',$,#68,#664);
#664=CONSTRUCTIVE_GEOMETRY_REPRESENTATION('coordinate systems',(#651,#655,#659),#10);
ENDSEC;
END-ISO-10303-21;
