ISO-10303-21;
HEADER;
FILE_DESCRIPTION (( 'STEP AP203' ),
    '1' );
FILE_NAME ('734.083.00.STEP',
    '2019-01-08T23:40:36',
    ( '' ),
    ( '' ),
    'SwSTEP 2.0',
    'SolidWorks 2019',
    '' );
FILE_SCHEMA (( 'CONFIG_CONTROL_DESIGN' ));
ENDSEC;

DATA;
#1 = PERSON_AND_ORGANIZATION_ROLE ( 'creator' ) ;
#2 = SECURITY_CLASSIFICATION_LEVEL ( 'unclassified' ) ;
#3 = DIRECTION ( 'NONE',  ( -1.000000000000000000, 0.0000000000000000000, 8.673617379884000762E-15 ) ) ;
#4 = ADVANCED_FACE ( 'NONE', ( #57 ), #153, .F. ) ;
#5 = CALENDAR_DATE ( 2019, 9, 1 ) ;
#6 =( NAMED_UNIT ( * ) PLANE_ANGLE_UNIT ( ) SI_UNIT ( $, .RADIAN. ) );
#7 = ORIENTED_EDGE ( 'NONE', *, *, #111, .F. ) ;
#8 = APPROVAL_STATUS ( 'not_yet_approved' ) ;
#9 = EDGE_CURVE ( 'NONE', #187, #187, #65, .T. ) ;
#10 = ADVANCED_BREP_SHAPE_REPRESENTATION ( '734.083.00', ( #132, #136, #22 ), #134 ) ;
#11 =( NAMED_UNIT ( * ) SI_UNIT ( $, .STERADIAN. ) SOLID_ANGLE_UNIT ( ) );
#12 = ADVANCED_FACE ( 'NONE', ( #92, #162 ), #107, .T. ) ;
#13 = LOCAL_TIME ( 0, 40, 36.00000000000000000, #185 ) ;
#14 = FACE_OUTER_BOUND ( 'NONE', #129, .T. ) ;
#15 = FACE_OUTER_BOUND ( 'NONE', #142, .T. ) ;
#16 = APPROVAL_DATE_TIME ( #163, #122 ) ;
#17 = AXIS2_PLACEMENT_3D ( 'NONE', #216, #127, #198 ) ;
#18 = AXIS2_PLACEMENT_3D ( 'NONE', #70, #131, #165 ) ;
#19 = EDGE_LOOP ( 'NONE', ( #45 ) ) ;
#20 = DIRECTION ( 'NONE',  ( 7.341221353265823756E-15, -0.0000000000000000000, 1.000000000000000000 ) ) ;
#21 = DIRECTION ( 'NONE',  ( -1.000000000000000000, 0.0000000000000000000, 6.982962677686266711E-15 ) ) ;
#22 = AXIS2_PLACEMENT_3D ( 'NONE', #51, #81, #33 ) ;
#23 = APPROVAL_DATE_TIME ( #169, #73 ) ;
#24 = CIRCLE ( 'NONE', #18, 4.000000000000015987 ) ;
#25 = PRODUCT_DEFINITION_SHAPE ( 'NONE', 'NONE',  #96 ) ;
#26 = DIRECTION ( 'NONE',  ( -8.334413700650475572E-15, 0.0000000000000000000, -1.000000000000000000 ) ) ;
#27 = CC_DESIGN_PERSON_AND_ORGANIZATION_ASSIGNMENT ( #54, #98, ( #96 ) ) ;
#28 = EDGE_LOOP ( 'NONE', ( #69 ) ) ;
#29 = AXIS2_PLACEMENT_3D ( 'NONE', #50, #31, #52 ) ;
#30 = CC_DESIGN_APPROVAL ( #73, ( #97 ) ) ;
#31 = DIRECTION ( 'NONE',  ( 6.982962677686266711E-15, 0.0000000000000000000, 1.000000000000000000 ) ) ;
#32 = EDGE_LOOP ( 'NONE', ( #93 ) ) ;
#33 = DIRECTION ( 'NONE',  ( 1.000000000000000000, 0.0000000000000000000, 0.0000000000000000000 ) ) ;
#34 = ADVANCED_FACE ( 'NONE', ( #14, #196 ), #40, .T. ) ;
#35 = APPROVAL_ROLE ( '' ) ;
#36 = AXIS2_PLACEMENT_3D ( 'NONE', #91, #215, #181 ) ;
#37 = CYLINDRICAL_SURFACE ( 'NONE', #192, 4.000000000000015987 ) ;
#38 = ORIENTED_EDGE ( 'NONE', *, *, #217, .T. ) ;
#39 = FACE_OUTER_BOUND ( 'NONE', #109, .T. ) ;
#40 = TOROIDAL_SURFACE ( 'NONE', #88, 2.000000000000014211, 2.000000000000000888 ) ;
#41 = LOCAL_TIME ( 0, 40, 36.00000000000000000, #151 ) ;
#42 = CALENDAR_DATE ( 2019, 9, 1 ) ;
#43 = CARTESIAN_POINT ( 'NONE',  ( 3.999999999999708677, 0.0000000000000000000, -44.00000000000002842 ) ) ;
#44 = ORIENTED_EDGE ( 'NONE', *, *, #157, .F. ) ;
#45 = ORIENTED_EDGE ( 'NONE', *, *, #53, .T. ) ;
#46 = APPROVAL_STATUS ( 'not_yet_approved' ) ;
#47 = PERSON ( 'UNSPECIFIED', 'UNSPECIFIED', 'UNSPECIFIED', ('UNSPECIFIED'), ('UNSPECIFIED'), ('UNSPECIFIED') ) ;
#48 = DIRECTION ( 'NONE',  ( -8.334413700650475572E-15, 0.0000000000000000000, -1.000000000000000000 ) ) ;
#49 = CC_DESIGN_PERSON_AND_ORGANIZATION_ASSIGNMENT ( #174, #1, ( #77 ) ) ;
#50 = CARTESIAN_POINT ( 'NONE',  ( -5.586370142149027568E-15, 0.0000000000000000000, -0.8000000000000020428 ) ) ;
#51 = CARTESIAN_POINT ( 'NONE',  ( 0.0000000000000000000, 0.0000000000000000000, 0.0000000000000000000 ) ) ;
#52 = DIRECTION ( 'NONE',  ( 1.000000000000000000, 0.0000000000000000000, -6.993104012531503599E-15 ) ) ;
#53 = EDGE_CURVE ( 'NONE', #76, #76, #210, .T. ) ;
#54 = PERSON_AND_ORGANIZATION ( #47, #149 ) ;
#55 = APPLICATION_CONTEXT ( 'configuration controlled 3d designs of mechanical parts and assemblies' ) ;
#56 = CLOSED_SHELL ( 'NONE', ( #4, #203, #34, #156 ) ) ;
#57 = FACE_OUTER_BOUND ( 'NONE', #79, .T. ) ;
#58 = FACE_OUTER_BOUND ( 'NONE', #28, .T. ) ;
#59 = DATE_TIME_ROLE ( 'classification_date' ) ;
#60 = AXIS2_PLACEMENT_3D ( 'NONE', #125, #80, #145 ) ;
#61 = COORDINATED_UNIVERSAL_TIME_OFFSET ( 1, 0, .AHEAD. ) ;
#62 = CARTESIAN_POINT ( 'NONE',  ( -4.399266486942348280E-13, 0.0000000000000000000, -63.00000000000000000 ) ) ;
#63 = PERSON_AND_ORGANIZATION_ROLE ( 'classification_officer' ) ;
#64 = ORIENTED_EDGE ( 'NONE', *, *, #157, .T. ) ;
#65 = CIRCLE ( 'NONE', #178, 3.199999999999997069 ) ;
#66 = APPROVAL_PERSON_ORGANIZATION ( #146, #122, #35 ) ;
#67 = APPLICATION_CONTEXT ( 'configuration controlled 3d designs of mechanical parts and assemblies' ) ;
#68 = PLANE ( 'NONE',  #17 ) ;
#69 = ORIENTED_EDGE ( 'NONE', *, *, #217, .F. ) ;
#70 = CARTESIAN_POINT ( 'NONE',  ( -3.072503578181957353E-13, 0.0000000000000000000, -44.00000000000000000 ) ) ;
#71 = CARTESIAN_POINT ( 'NONE',  ( -4.399266486942348280E-13, 0.0000000000000000000, -63.00000000000000000 ) ) ;
#72 = DIRECTION ( 'NONE',  ( 6.982962677686266711E-15, 0.0000000000000000000, 1.000000000000000000 ) ) ;
#73 = APPROVAL ( #46, 'UNSPECIFIED' ) ;
#74 = CARTESIAN_POINT ( 'NONE',  ( -4.656042181305547790E-13, 0.0000000000000000000, -63.00000000000000000 ) ) ;
#75 = CYLINDRICAL_SURFACE ( 'NONE', #219, 4.000000000000015987 ) ;
#76 = VERTEX_POINT ( 'NONE', #121 ) ;
#77 = PRODUCT_DEFINITION_FORMATION_WITH_SPECIFIED_SOURCE ( 'ANY', '', #197, .NOT_KNOWN. ) ;
#78 = CALENDAR_DATE ( 2019, 9, 1 ) ;
#79 = EDGE_LOOP ( 'NONE', ( #7 ) ) ;
#80 = DIRECTION ( 'NONE',  ( -6.982962677686266711E-15, -0.0000000000000000000, -1.000000000000000000 ) ) ;
#81 = DIRECTION ( 'NONE',  ( 0.0000000000000000000, 0.0000000000000000000, 1.000000000000000000 ) ) ;
#82 = CARTESIAN_POINT ( 'NONE',  ( -4.489458093955549381E-13, 0.0000000000000000000, -61.00000000000000000 ) ) ;
#83 = DIRECTION ( 'NONE',  ( 1.000000000000000000, 0.0000000000000000000, -6.938893903907200768E-15 ) ) ;
#84 = APPROVAL_STATUS ( 'not_yet_approved' ) ;
#85 = SHAPE_DEFINITION_REPRESENTATION ( #25, #10 ) ;
#86 = ORIENTED_EDGE ( 'NONE', *, *, #90, .T. ) ;
#87 = ORIENTED_EDGE ( 'NONE', *, *, #53, .F. ) ;
#88 = AXIS2_PLACEMENT_3D ( 'NONE', #82, #48, #176 ) ;
#89 = MECHANICAL_CONTEXT ( 'NONE', #55, 'mechanical' ) ;
#90 = EDGE_CURVE ( 'NONE', #135, #135, #195, .T. ) ;
#91 = CARTESIAN_POINT ( 'NONE',  ( -4.656042181305547790E-13, 0.0000000000000000000, -63.00000000000000000 ) ) ;
#92 = FACE_OUTER_BOUND ( 'NONE', #19, .T. ) ;
#93 = ORIENTED_EDGE ( 'NONE', *, *, #90, .F. ) ;
#94 = APPLICATION_PROTOCOL_DEFINITION ( 'international standard', 'config_control_design', 1994, #55 ) ;
#95 = COORDINATED_UNIVERSAL_TIME_OFFSET ( 1, 0, .AHEAD. ) ;
#96 = PRODUCT_DEFINITION ( 'UNKNOWN', '', #77, #108 ) ;
#97 = SECURITY_CLASSIFICATION ( '', '', #2 ) ;
#98 = PERSON_AND_ORGANIZATION_ROLE ( 'creator' ) ;
#99 = ORIENTED_EDGE ( 'NONE', *, *, #9, .T. ) ;
#100 = DIRECTION ( 'NONE',  ( 1.000000000000000000, 0.0000000000000000000, -6.982962677686266711E-15 ) ) ;
#101 = DIRECTION ( 'NONE',  ( 1.000000000000000000, 0.0000000000000000000, -6.938893903907200768E-15 ) ) ;
#102 = PERSON_AND_ORGANIZATION ( #47, #149 ) ;
#103 = DIRECTION ( 'NONE',  ( -6.982962677686266711E-15, 0.0000000000000000000, -1.000000000000000000 ) ) ;
#104 = CARTESIAN_POINT ( 'NONE',  ( -4.000000000000465405, 0.0000000000000000000, -60.99999999999995737 ) ) ;
#105 = ORIENTED_EDGE ( 'NONE', *, *, #111, .T. ) ;
#106 = CC_DESIGN_DATE_AND_TIME_ASSIGNMENT ( #133, #155, ( #96 ) ) ;
#107 = CONICAL_SURFACE ( 'NONE', #110, 3.199999999999997069, 0.7853981633974488341 ) ;
#108 = DESIGN_CONTEXT ( 'detailed design', #67, 'design' ) ;
#109 = EDGE_LOOP ( 'NONE', ( #99 ) ) ;
#110 = AXIS2_PLACEMENT_3D ( 'NONE', #160, #194, #123 ) ;
#111 = EDGE_CURVE ( 'NONE', #117, #117, #148, .T. ) ;
#112 = APPLICATION_PROTOCOL_DEFINITION ( 'international standard', 'config_control_design', 1994, #67 ) ;
#113 = PLANE ( 'NONE',  #184 ) ;
#114 = LOCAL_TIME ( 0, 40, 36.00000000000000000, #95 ) ;
#115 = FACE_OUTER_BOUND ( 'NONE', #119, .T. ) ;
#116 = ADVANCED_FACE ( 'NONE', ( #214 ), #68, .T. ) ;
#117 = VERTEX_POINT ( 'NONE', #193 ) ;
#118 = DATE_AND_TIME ( #206, #211 ) ;
#119 = EDGE_LOOP ( 'NONE', ( #87 ) ) ;
#120 = PERSON_AND_ORGANIZATION ( #47, #149 ) ;
#121 = CARTESIAN_POINT ( 'NONE',  ( 3.999999999999994671, 0.0000000000000000000, -0.8000000000000300204 ) ) ;
#122 = APPROVAL ( #84, 'UNSPECIFIED' ) ;
#123 = DIRECTION ( 'NONE',  ( -1.000000000000000000, 0.0000000000000000000, 6.982962677686267499E-15 ) ) ;
#124 = APPROVAL_PERSON_ORGANIZATION ( #120, #73, #191 ) ;
#125 = CARTESIAN_POINT ( 'NONE',  ( -3.072503578181957353E-13, 0.0000000000000000000, -44.00000000000000000 ) ) ;
#126 = ADVANCED_FACE ( 'NONE', ( #39 ), #113, .T. ) ;
#127 = DIRECTION ( 'NONE',  ( -6.982962677686266711E-15, 0.0000000000000000000, -1.000000000000000000 ) ) ;
#128 = DIRECTION ( 'NONE',  ( 6.982962677686266711E-15, 0.0000000000000000000, 1.000000000000000000 ) ) ;
#129 = EDGE_LOOP ( 'NONE', ( #38 ) ) ;
#130 = DIRECTION ( 'NONE',  ( 1.000000000000000000, 0.0000000000000000000, -6.982962677686267499E-15 ) ) ;
#131 = DIRECTION ( 'NONE',  ( -6.982962677686266711E-15, -0.0000000000000000000, -1.000000000000000000 ) ) ;
#132 = MANIFOLD_SOLID_BREP ( 'Körper in Z minus drehen[1]', #56 ) ;
#133 = DATE_AND_TIME ( #5, #41 ) ;
#134 =( GEOMETRIC_REPRESENTATION_CONTEXT ( 3 ) GLOBAL_UNCERTAINTY_ASSIGNED_CONTEXT ( ( #179 ) ) GLOBAL_UNIT_ASSIGNED_CONTEXT ( ( #172, #6, #11 ) ) REPRESENTATION_CONTEXT ( 'NONE', 'WORKASPACE' ) );
#135 = VERTEX_POINT ( 'NONE', #209 ) ;
#136 = MANIFOLD_SOLID_BREP ( 'Körper in Z minus drehen[2]', #154 ) ;
#137 = PERSON_AND_ORGANIZATION_ROLE ( 'design_supplier' ) ;
#138 = VERTEX_POINT ( 'NONE', #104 ) ;
#139 = DATE_AND_TIME ( #78, #13 ) ;
#140 = CARTESIAN_POINT ( 'NONE',  ( 3.199999999999997069, 0.0000000000000000000, -2.234548056859603454E-14 ) ) ;
#141 = DIRECTION ( 'NONE',  ( 6.982962677686266711E-15, 0.0000000000000000000, 1.000000000000000000 ) ) ;
#142 = EDGE_LOOP ( 'NONE', ( #86 ) ) ;
#143 = PRODUCT_RELATED_PRODUCT_CATEGORY ( 'detail', '', ( #197 ) ) ;
#144 = AXIS2_PLACEMENT_3D ( 'NONE', #207, #26, #3 ) ;
#145 = DIRECTION ( 'NONE',  ( 1.000000000000000000, 0.0000000000000000000, -6.938893903907200768E-15 ) ) ;
#146 = PERSON_AND_ORGANIZATION ( #47, #149 ) ;
#147 = FACE_OUTER_BOUND ( 'NONE', #152, .T. ) ;
#148 = CIRCLE ( 'NONE', #60, 4.000000000000015987 ) ;
#149 = ORGANIZATION ( 'UNSPECIFIED', 'UNSPECIFIED', '' ) ;
#150 = FACE_OUTER_BOUND ( 'NONE', #221, .T. ) ;
#151 = COORDINATED_UNIVERSAL_TIME_OFFSET ( 1, 0, .AHEAD. ) ;
#152 = EDGE_LOOP ( 'NONE', ( #44 ) ) ;
#153 = PLANE ( 'NONE',  #201 ) ;
#154 = CLOSED_SHELL ( 'NONE', ( #212, #126, #12, #116 ) ) ;
#155 = DATE_TIME_ROLE ( 'creation_date' ) ;
#156 = ADVANCED_FACE ( 'NONE', ( #15 ), #183, .F. ) ;
#157 = EDGE_CURVE ( 'NONE', #190, #190, #24, .T. ) ;
#158 = APPROVAL_DATE_TIME ( #139, #220 ) ;
#159 = CC_DESIGN_SECURITY_CLASSIFICATION ( #97, ( #77 ) ) ;
#160 = CARTESIAN_POINT ( 'NONE',  ( 0.0000000000000000000, 0.0000000000000000000, 0.0000000000000000000 ) ) ;
#161 = CC_DESIGN_PERSON_AND_ORGANIZATION_ASSIGNMENT ( #102, #137, ( #77 ) ) ;
#162 = FACE_BOUND ( 'NONE', #175, .T. ) ;
#163 = DATE_AND_TIME ( #164, #114 ) ;
#164 = CALENDAR_DATE ( 2019, 9, 1 ) ;
#165 = DIRECTION ( 'NONE',  ( 1.000000000000000000, 0.0000000000000000000, -6.938893903907200768E-15 ) ) ;
#166 = DIRECTION ( 'NONE',  ( 6.982962677686266711E-15, 0.0000000000000000000, 1.000000000000000000 ) ) ;
#167 = CARTESIAN_POINT ( 'NONE',  ( -3.072503578181957353E-13, 0.0000000000000000000, -44.00000000000000000 ) ) ;
#168 = PERSON_AND_ORGANIZATION_ROLE ( 'design_owner' ) ;
#169 = DATE_AND_TIME ( #42, #180 ) ;
#170 = APPROVAL_ROLE ( '' ) ;
#171 = CC_DESIGN_DATE_AND_TIME_ASSIGNMENT ( #118, #59, ( #97 ) ) ;
#172 =( LENGTH_UNIT ( ) NAMED_UNIT ( * ) SI_UNIT ( .MILLI., .METRE. ) );
#173 = APPROVAL_PERSON_ORGANIZATION ( #189, #220, #170 ) ;
#174 = PERSON_AND_ORGANIZATION ( #47, #149 ) ;
#175 = EDGE_LOOP ( 'NONE', ( #177 ) ) ;
#176 = DIRECTION ( 'NONE',  ( -1.000000000000000000, 0.0000000000000000000, 8.334413700650475572E-15 ) ) ;
#177 = ORIENTED_EDGE ( 'NONE', *, *, #9, .F. ) ;
#178 = AXIS2_PLACEMENT_3D ( 'NONE', #223, #72, #130 ) ;
#179 = UNCERTAINTY_MEASURE_WITH_UNIT (LENGTH_MEASURE( 1.000000000000000082E-05 ), #172, 'distance_accuracy_value', 'NONE');
#180 = LOCAL_TIME ( 0, 40, 36.00000000000000000, #186 ) ;
#181 = DIRECTION ( 'NONE',  ( -1.000000000000000000, 0.0000000000000000000, 6.938893903907170002E-15 ) ) ;
#182 = CC_DESIGN_PERSON_AND_ORGANIZATION_ASSIGNMENT ( #199, #168, ( #197 ) ) ;
#183 = PLANE ( 'NONE',  #213 ) ;
#184 = AXIS2_PLACEMENT_3D ( 'NONE', #205, #166, #100 ) ;
#185 = COORDINATED_UNIVERSAL_TIME_OFFSET ( 1, 0, .AHEAD. ) ;
#186 = COORDINATED_UNIVERSAL_TIME_OFFSET ( 1, 0, .AHEAD. ) ;
#187 = VERTEX_POINT ( 'NONE', #140 ) ;
#188 = CC_DESIGN_PERSON_AND_ORGANIZATION_ASSIGNMENT ( #208, #63, ( #97 ) ) ;
#189 = PERSON_AND_ORGANIZATION ( #47, #149 ) ;
#190 = VERTEX_POINT ( 'NONE', #43 ) ;
#191 = APPROVAL_ROLE ( '' ) ;
#192 = AXIS2_PLACEMENT_3D ( 'NONE', #71, #128, #83 ) ;
#193 = CARTESIAN_POINT ( 'NONE',  ( 3.999999999999708677, 0.0000000000000000000, -44.00000000000002842 ) ) ;
#194 = DIRECTION ( 'NONE',  ( -6.982962677686266711E-15, 0.0000000000000000000, -1.000000000000000000 ) ) ;
#195 = CIRCLE ( 'NONE', #36, 2.000000000000016875 ) ;
#196 = FACE_OUTER_BOUND ( 'NONE', #32, .T. ) ;
#197 = PRODUCT ( '734.083.00', '734.083.00', '', ( #89 ) ) ;
#198 = DIRECTION ( 'NONE',  ( -1.000000000000000000, 0.0000000000000000000, 6.982962677686266711E-15 ) ) ;
#199 = PERSON_AND_ORGANIZATION ( #47, #149 ) ;
#200 = DIRECTION ( 'NONE',  ( 1.000000000000000000, 0.0000000000000000000, -7.341221353265823756E-15 ) ) ;
#201 = AXIS2_PLACEMENT_3D ( 'NONE', #167, #103, #21 ) ;
#202 = CIRCLE ( 'NONE', #144, 4.000000000000015987 ) ;
#203 = ADVANCED_FACE ( 'NONE', ( #58, #150 ), #37, .T. ) ;
#204 = EDGE_LOOP ( 'NONE', ( #64 ) ) ;
#205 = CARTESIAN_POINT ( 'NONE',  ( -1.515925944695570123E-30, 0.0000000000000000000, -2.170892233950556695E-16 ) ) ;
#206 = CALENDAR_DATE ( 2019, 9, 1 ) ;
#207 = CARTESIAN_POINT ( 'NONE',  ( -4.489353907292538058E-13, 0.0000000000000000000, -60.99999999999999289 ) ) ;
#208 = PERSON_AND_ORGANIZATION ( #47, #149 ) ;
#209 = CARTESIAN_POINT ( 'NONE',  ( -2.000000000000482725, 0.0000000000000000000, -62.99999999999998579 ) ) ;
#210 = CIRCLE ( 'NONE', #29, 4.000000000000000000 ) ;
#211 = LOCAL_TIME ( 0, 40, 36.00000000000000000, #61 ) ;
#212 = ADVANCED_FACE ( 'NONE', ( #147, #115 ), #75, .T. ) ;
#213 = AXIS2_PLACEMENT_3D ( 'NONE', #74, #20, #200 ) ;
#214 = FACE_OUTER_BOUND ( 'NONE', #204, .T. ) ;
#215 = DIRECTION ( 'NONE',  ( -8.334413700650475572E-15, 0.0000000000000000000, -1.000000000000000000 ) ) ;
#216 = CARTESIAN_POINT ( 'NONE',  ( -3.072503578181957353E-13, 0.0000000000000000000, -44.00000000000000000 ) ) ;
#217 = EDGE_CURVE ( 'NONE', #138, #138, #202, .T. ) ;
#218 = CC_DESIGN_APPROVAL ( #122, ( #96 ) ) ;
#219 = AXIS2_PLACEMENT_3D ( 'NONE', #62, #141, #101 ) ;
#220 = APPROVAL ( #8, 'UNSPECIFIED' ) ;
#221 = EDGE_LOOP ( 'NONE', ( #105 ) ) ;
#222 = CC_DESIGN_APPROVAL ( #220, ( #77 ) ) ;
#223 = CARTESIAN_POINT ( 'NONE',  ( 0.0000000000000000000, 0.0000000000000000000, 0.0000000000000000000 ) ) ;
ENDSEC;
END-ISO-10303-21;
15439