ISO-10303-21;
HEADER;
FILE_DESCRIPTION (( 'STEP AP203' ),
    '1' );
FILE_NAME ('734.042.00.STEP',
    '2019-01-09T00:32:55',
    ( '' ),
    ( '' ),
    'SwSTEP 2.0',
    'SolidWorks 2019',
    '' );
FILE_SCHEMA (( 'CONFIG_CONTROL_DESIGN' ));
ENDSEC;

DATA;
#1 = UNCERTAINTY_MEASURE_WITH_UNIT (LENGTH_MEASURE( 1.000000000000000082E-05 ), #102, 'distance_accuracy_value', 'NONE');
#2 =( NAMED_UNIT ( * ) SI_UNIT ( $, .STERADIAN. ) SOLID_ANGLE_UNIT ( ) );
#3 = DIRECTION ( 'NONE',  ( 7.373952358995601206E-15, -0.0000000000000000000, 1.000000000000000000 ) ) ;
#4 = EDGE_LOOP ( 'NONE', ( #81 ) ) ;
#5 = DIRECTION ( 'NONE',  ( 1.000000000000000000, 0.0000000000000000000, -6.835054074236505469E-15 ) ) ;
#6 = PERSON_AND_ORGANIZATION ( #232, #100 ) ;
#7 = CARTESIAN_POINT ( 'NONE',  ( -8.410045918268130563E-31, 0.0000000000000000000, -1.204366442504703962E-16 ) ) ;
#8 = AXIS2_PLACEMENT_3D ( 'NONE', #83, #157, #249 ) ;
#9 = CARTESIAN_POINT ( 'NONE',  ( 6.056509442254067229E-14, 0.0000000000000000000, 8.673266236417621400 ) ) ;
#10 = DIRECTION ( 'NONE',  ( -7.109998028014204707E-15, 0.0000000000000000000, -1.000000000000000000 ) ) ;
#11 = PLANE ( 'NONE',  #223 ) ;
#12 = LOCAL_TIME ( 1, 32, 55.00000000000000000, #206 ) ;
#13 = CARTESIAN_POINT ( 'NONE',  ( -4.142478364416206802E-13, 0.0000000000000000000, -55.99999999999999289 ) ) ;
#14 = ORIENTED_EDGE ( 'NONE', *, *, #93, .F. ) ;
#15 = FACE_OUTER_BOUND ( 'NONE', #98, .T. ) ;
#16 = CIRCLE ( 'NONE', #201, 3.000000000000017319 ) ;
#17 = CARTESIAN_POINT ( 'NONE',  ( 1.999999999999673816, 0.0000000000000000000, -46.00000000000001421 ) ) ;
#18 = ADVANCED_FACE ( 'NONE', ( #154 ), #57, .F. ) ;
#19 = ORIENTED_EDGE ( 'NONE', *, *, #195, .F. ) ;
#20 = FACE_OUTER_BOUND ( 'NONE', #200, .T. ) ;
#21 = DESIGN_CONTEXT ( 'detailed design', #110, 'design' ) ;
#22 = CARTESIAN_POINT ( 'NONE',  ( -4.237064420644371283E-13, 0.0000000000000000000, -56.99999999999999289 ) ) ;
#23 = CLOSED_SHELL ( 'NONE', ( #164, #188, #263, #18 ) ) ;
#24 = PERSON_AND_ORGANIZATION ( #232, #100 ) ;
#25 = APPROVAL_DATE_TIME ( #65, #33 ) ;
#26 = DIRECTION ( 'NONE',  ( 6.982962677686266711E-15, 0.0000000000000000000, 1.000000000000000000 ) ) ;
#27 = CARTESIAN_POINT ( 'NONE',  ( -3.212162831735682182E-13, 0.0000000000000000000, -46.00000000000000000 ) ) ;
#28 = APPROVAL_PERSON_ORGANIZATION ( #52, #221, #167 ) ;
#29 = COORDINATED_UNIVERSAL_TIME_OFFSET ( 1, 0, .AHEAD. ) ;
#30 = APPROVAL_STATUS ( 'not_yet_approved' ) ;
#31 = DIRECTION ( 'NONE',  ( 6.982962677686266711E-15, 0.0000000000000000000, 1.000000000000000000 ) ) ;
#32 = DATE_AND_TIME ( #39, #77 ) ;
#33 = APPROVAL ( #246, 'UNSPECIFIED' ) ;
#34 = CARTESIAN_POINT ( 'NONE',  ( 2.999999999999732214, 0.0000000000000000000, -40.15374085333015586 ) ) ;
#35 = PRODUCT ( '734.042.00', '734.042.00', '', ( #139 ) ) ;
#36 = ORIENTED_EDGE ( 'NONE', *, *, #93, .T. ) ;
#37 = EDGE_CURVE ( 'NONE', #214, #214, #156, .T. ) ;
#38 = EDGE_LOOP ( 'NONE', ( #135 ) ) ;
#39 = CALENDAR_DATE ( 2019, 9, 1 ) ;
#40 = CARTESIAN_POINT ( 'NONE',  ( 1.999999999999673816, 0.0000000000000000000, -46.00000000000001421 ) ) ;
#41 = LOCAL_TIME ( 1, 32, 55.00000000000000000, #95 ) ;
#42 = VERTEX_POINT ( 'NONE', #79 ) ;
#43 = APPROVAL ( #30, 'UNSPECIFIED' ) ;
#44 = APPROVAL_ROLE ( '' ) ;
#45 = ADVANCED_FACE ( 'NONE', ( #245, #137 ), #50, .F. ) ;
#46 = PERSON_AND_ORGANIZATION ( #232, #100 ) ;
#47 = DIRECTION ( 'NONE',  ( 1.000000000000000000, 0.0000000000000000000, -6.975033976323412122E-15 ) ) ;
#48 = PERSON_AND_ORGANIZATION_ROLE ( 'creator' ) ;
#49 = FACE_OUTER_BOUND ( 'NONE', #130, .T. ) ;
#50 = TOROIDAL_SURFACE ( 'NONE', #183, 3.999999999999999112, 1.999999999999997780 ) ;
#51 = DIRECTION ( 'NONE',  ( 7.109998028014204707E-15, -0.0000000000000000000, 1.000000000000000000 ) ) ;
#52 = PERSON_AND_ORGANIZATION ( #232, #100 ) ;
#53 = CARTESIAN_POINT ( 'NONE',  ( 0.0000000000000000000, 0.0000000000000000000, 0.0000000000000000000 ) ) ;
#54 = PRODUCT_DEFINITION_FORMATION_WITH_SPECIFIED_SOURCE ( 'ANY', '', #35, .NOT_KNOWN. ) ;
#55 = VERTEX_POINT ( 'NONE', #215 ) ;
#56 = FACE_OUTER_BOUND ( 'NONE', #179, .T. ) ;
#57 = PLANE ( 'NONE',  #146 ) ;
#58 = CC_DESIGN_DATE_AND_TIME_ASSIGNMENT ( #32, #74, ( #108 ) ) ;
#59 = EDGE_LOOP ( 'NONE', ( #19 ) ) ;
#60 = CARTESIAN_POINT ( 'NONE',  ( 0.0000000000000000000, 0.0000000000000000000, 0.0000000000000000000 ) ) ;
#61 = ORIENTED_EDGE ( 'NONE', *, *, #116, .T. ) ;
#62 = FACE_OUTER_BOUND ( 'NONE', #4, .T. ) ;
#63 =( GEOMETRIC_REPRESENTATION_CONTEXT ( 3 ) GLOBAL_UNCERTAINTY_ASSIGNED_CONTEXT ( ( #1 ) ) GLOBAL_UNIT_ASSIGNED_CONTEXT ( ( #102, #178, #2 ) ) REPRESENTATION_CONTEXT ( 'NONE', 'WORKASPACE' ) );
#64 = ADVANCED_FACE ( 'NONE', ( #20 ), #185, .T. ) ;
#65 = DATE_AND_TIME ( #209, #149 ) ;
#66 = CARTESIAN_POINT ( 'NONE',  ( -3.270599092886533503E-13, 0.0000000000000000000, -46.00000000000000000 ) ) ;
#67 = APPROVAL_DATE_TIME ( #254, #221 ) ;
#68 = FACE_OUTER_BOUND ( 'NONE', #216, .T. ) ;
#69 = DIRECTION ( 'NONE',  ( -6.982962677686266711E-15, 0.0000000000000000000, -1.000000000000000000 ) ) ;
#70 = DIRECTION ( 'NONE',  ( -1.000000000000000000, 0.0000000000000000000, 9.317287171897173500E-15 ) ) ;
#71 = CC_DESIGN_SECURITY_CLASSIFICATION ( #108, ( #54 ) ) ;
#72 = CC_DESIGN_APPROVAL ( #221, ( #108 ) ) ;
#73 = CARTESIAN_POINT ( 'NONE',  ( 2.399999999999997691, 0.0000000000000000000, -1.675911042644702433E-14 ) ) ;
#74 = DATE_TIME_ROLE ( 'classification_date' ) ;
#75 = DIRECTION ( 'NONE',  ( -9.317287171897173500E-15, 0.0000000000000000000, -1.000000000000000000 ) ) ;
#76 = APPROVAL_STATUS ( 'not_yet_approved' ) ;
#77 = LOCAL_TIME ( 1, 32, 55.00000000000000000, #220 ) ;
#78 = ORIENTED_EDGE ( 'NONE', *, *, #241, .F. ) ;
#79 = CARTESIAN_POINT ( 'NONE',  ( -2.000000000000431211, 0.0000000000000000000, -55.99999999999996447 ) ) ;
#80 = CC_DESIGN_DATE_AND_TIME_ASSIGNMENT ( #90, #186, ( #127 ) ) ;
#81 = ORIENTED_EDGE ( 'NONE', *, *, #118, .F. ) ;
#82 = AXIS2_PLACEMENT_3D ( 'NONE', #160, #192, #5 ) ;
#83 = CARTESIAN_POINT ( 'NONE',  ( -3.212162831735682182E-13, 0.0000000000000000000, -46.00000000000000000 ) ) ;
#84 = PRODUCT_DEFINITION_SHAPE ( 'NONE', 'NONE',  #127 ) ;
#85 = DATE_AND_TIME ( #210, #92 ) ;
#86 = ADVANCED_FACE ( 'NONE', ( #255 ), #247, .T. ) ;
#87 = DIRECTION ( 'NONE',  ( 1.000000000000000000, 0.0000000000000000000, -6.938893903907225222E-15 ) ) ;
#88 = APPROVAL_PERSON_ORGANIZATION ( #24, #33, #44 ) ;
#89 = MANIFOLD_SOLID_BREP ( 'Körper in Z minus drehen[1]', #211 ) ;
#90 = DATE_AND_TIME ( #112, #12 ) ;
#91 = FACE_OUTER_BOUND ( 'NONE', #59, .T. ) ;
#92 = LOCAL_TIME ( 1, 32, 55.00000000000000000, #29 ) ;
#93 = EDGE_CURVE ( 'NONE', #55, #55, #197, .T. ) ;
#94 = CC_DESIGN_PERSON_AND_ORGANIZATION_ASSIGNMENT ( #251, #225, ( #127 ) ) ;
#95 = COORDINATED_UNIVERSAL_TIME_OFFSET ( 1, 0, .AHEAD. ) ;
#96 = CIRCLE ( 'NONE', #248, 2.399999999999997691 ) ;
#97 = VERTEX_POINT ( 'NONE', #175 ) ;
#98 = EDGE_LOOP ( 'NONE', ( #257 ) ) ;
#99 = ORIENTED_EDGE ( 'NONE', *, *, #195, .T. ) ;
#100 = ORGANIZATION ( 'UNSPECIFIED', 'UNSPECIFIED', '' ) ;
#101 = EDGE_LOOP ( 'NONE', ( #14 ) ) ;
#102 =( LENGTH_UNIT ( ) NAMED_UNIT ( * ) SI_UNIT ( .MILLI., .METRE. ) );
#103 = DIRECTION ( 'NONE',  ( 7.109998028014204707E-15, -0.0000000000000000000, 1.000000000000000000 ) ) ;
#104 = CIRCLE ( 'NONE', #151, 3.000000000000000000 ) ;
#105 = DIRECTION ( 'NONE',  ( -1.000000000000000000, 0.0000000000000000000, 6.938893903907105315E-15 ) ) ;
#106 = CARTESIAN_POINT ( 'NONE',  ( -3.980288726281171773E-13, 0.0000000000000000000, -56.99999999999999289 ) ) ;
#107 = COORDINATED_UNIVERSAL_TIME_OFFSET ( 1, 0, .AHEAD. ) ;
#108 = SECURITY_CLASSIFICATION ( '', '', #176 ) ;
#109 = DIRECTION ( 'NONE',  ( -1.000000000000000000, 0.0000000000000000000, 6.982962677686266711E-15 ) ) ;
#110 = APPLICATION_CONTEXT ( 'configuration controlled 3d designs of mechanical parts and assemblies' ) ;
#111 = PERSON_AND_ORGANIZATION ( #232, #100 ) ;
#112 = CALENDAR_DATE ( 2019, 9, 1 ) ;
#113 = FACE_OUTER_BOUND ( 'NONE', #170, .T. ) ;
#114 = CARTESIAN_POINT ( 'NONE',  ( 0.0000000000000000000, 0.0000000000000000000, 0.0000000000000000000 ) ) ;
#115 = ADVANCED_FACE ( 'NONE', ( #62, #49 ), #187, .T. ) ;
#116 = EDGE_CURVE ( 'NONE', #172, #172, #96, .T. ) ;
#117 = FACE_OUTER_BOUND ( 'NONE', #158, .T. ) ;
#118 = EDGE_CURVE ( 'NONE', #235, #235, #16, .T. ) ;
#119 = PERSON_AND_ORGANIZATION_ROLE ( 'design_owner' ) ;
#120 = AXIS2_PLACEMENT_3D ( 'NONE', #13, #258, #70 ) ;
#121 = ORIENTED_EDGE ( 'NONE', *, *, #144, .T. ) ;
#122 = DIRECTION ( 'NONE',  ( 1.000000000000000000, 0.0000000000000000000, -6.938893903907188146E-15 ) ) ;
#123 = APPLICATION_CONTEXT ( 'configuration controlled 3d designs of mechanical parts and assemblies' ) ;
#124 = DIRECTION ( 'NONE',  ( -6.982962677686266711E-15, 0.0000000000000000000, -1.000000000000000000 ) ) ;
#125 = AXIS2_PLACEMENT_3D ( 'NONE', #60, #184, #219 ) ;
#126 = DIRECTION ( 'NONE',  ( 1.000000000000000000, 0.0000000000000000000, -6.982962677686266711E-15 ) ) ;
#127 = PRODUCT_DEFINITION ( 'UNKNOWN', '', #54, #21 ) ;
#128 = CARTESIAN_POINT ( 'NONE',  ( -3.245906328870931171E-13, 0.0000000000000000000, -45.65270364466613984 ) ) ;
#129 = DIRECTION ( 'NONE',  ( 1.000000000000000000, 0.0000000000000000000, -6.835054074236505469E-15 ) ) ;
#130 = EDGE_LOOP ( 'NONE', ( #224 ) ) ;
#131 = AXIS2_PLACEMENT_3D ( 'NONE', #128, #230, #129 ) ;
#132 = FACE_BOUND ( 'NONE', #262, .T. ) ;
#133 = AXIS2_PLACEMENT_3D ( 'NONE', #114, #69, #194 ) ;
#134 = PERSON_AND_ORGANIZATION_ROLE ( 'design_supplier' ) ;
#135 = ORIENTED_EDGE ( 'NONE', *, *, #37, .T. ) ;
#136 = PERSON_AND_ORGANIZATION ( #232, #100 ) ;
#137 = FACE_OUTER_BOUND ( 'NONE', #203, .T. ) ;
#138 = AXIS2_PLACEMENT_3D ( 'NONE', #106, #143, #122 ) ;
#139 = MECHANICAL_CONTEXT ( 'NONE', #123, 'mechanical' ) ;
#140 = DIRECTION ( 'NONE',  ( 1.000000000000000000, 0.0000000000000000000, -7.373952358995601206E-15 ) ) ;
#141 = CARTESIAN_POINT ( 'NONE',  ( -3.272878153394870430E-13, 0.0000000000000000000, -46.00000000000000000 ) ) ;
#142 = CIRCLE ( 'NONE', #218, 2.000000000000000888 ) ;
#143 = DIRECTION ( 'NONE',  ( 6.982962677686266711E-15, 0.0000000000000000000, 1.000000000000000000 ) ) ;
#144 = EDGE_CURVE ( 'NONE', #196, #196, #142, .T. ) ;
#145 = DIRECTION ( 'NONE',  ( 7.109998028014204707E-15, -0.0000000000000000000, 1.000000000000000000 ) ) ;
#146 = AXIS2_PLACEMENT_3D ( 'NONE', #177, #3, #140 ) ;
#147 = DIRECTION ( 'NONE',  ( 6.982962677686266711E-15, 0.0000000000000000000, 1.000000000000000000 ) ) ;
#148 = DIRECTION ( 'NONE',  ( 7.373952358995601206E-15, -0.0000000000000000000, 1.000000000000000000 ) ) ;
#149 = LOCAL_TIME ( 1, 32, 55.00000000000000000, #107 ) ;
#150 = PERSON_AND_ORGANIZATION_ROLE ( 'classification_officer' ) ;
#151 = AXIS2_PLACEMENT_3D ( 'NONE', #163, #147, #47 ) ;
#152 = EDGE_CURVE ( 'NONE', #97, #97, #104, .T. ) ;
#153 = ORIENTED_EDGE ( 'NONE', *, *, #116, .F. ) ;
#154 = FACE_OUTER_BOUND ( 'NONE', #38, .T. ) ;
#155 = EDGE_LOOP ( 'NONE', ( #61 ) ) ;
#156 = CIRCLE ( 'NONE', #261, 1.000000000000017764 ) ;
#157 = DIRECTION ( 'NONE',  ( -6.982962677686266711E-15, 0.0000000000000000000, -1.000000000000000000 ) ) ;
#158 = EDGE_LOOP ( 'NONE', ( #238 ) ) ;
#159 = APPROVAL_DATE_TIME ( #85, #43 ) ;
#160 = CARTESIAN_POINT ( 'NONE',  ( -3.245906328870931171E-13, 0.0000000000000000000, -45.65270364466613984 ) ) ;
#161 = CC_DESIGN_PERSON_AND_ORGANIZATION_ASSIGNMENT ( #111, #134, ( #54 ) ) ;
#162 = APPROVAL_PERSON_ORGANIZATION ( #46, #43, #226 ) ;
#163 = CARTESIAN_POINT ( 'NONE',  ( -4.189777606611783692E-15, 0.0000000000000000000, -0.6000000000000033085 ) ) ;
#164 = ADVANCED_FACE ( 'NONE', ( #113 ), #11, .F. ) ;
#165 = PERSON_AND_ORGANIZATION ( #232, #100 ) ;
#166 = DIRECTION ( 'NONE',  ( 1.000000000000000000, 0.0000000000000000000, -6.938893903907188146E-15 ) ) ;
#167 = APPROVAL_ROLE ( '' ) ;
#168 = AXIS2_PLACEMENT_3D ( 'NONE', #7, #31, #126 ) ;
#169 = DIRECTION ( 'NONE',  ( -1.000000000000000000, 0.0000000000000000000, 1.040834085586075737E-14 ) ) ;
#170 = EDGE_LOOP ( 'NONE', ( #99 ) ) ;
#171 = ADVANCED_BREP_SHAPE_REPRESENTATION ( '734.042.00', ( #89, #180, #125 ), #63 ) ;
#172 = VERTEX_POINT ( 'NONE', #73 ) ;
#173 = TOROIDAL_SURFACE ( 'NONE', #120, 1.000000000000015543, 1.000000000000000444 ) ;
#174 = SHAPE_DEFINITION_REPRESENTATION ( #84, #171 ) ;
#175 = CARTESIAN_POINT ( 'NONE',  ( 2.999999999999995559, 0.0000000000000000000, -0.6000000000000241807 ) ) ;
#176 = SECURITY_CLASSIFICATION_LEVEL ( 'unclassified' ) ;
#177 = CARTESIAN_POINT ( 'NONE',  ( -4.237064420644371283E-13, 0.0000000000000000000, -56.99999999999999289 ) ) ;
#178 =( NAMED_UNIT ( * ) PLANE_ANGLE_UNIT ( ) SI_UNIT ( $, .RADIAN. ) );
#179 = EDGE_LOOP ( 'NONE', ( #244 ) ) ;
#180 = MANIFOLD_SOLID_BREP ( 'Körper in Z minus drehen[2]', #23 ) ;
#181 = VERTEX_POINT ( 'NONE', #40 ) ;
#182 = DIRECTION ( 'NONE',  ( 1.000000000000000000, 0.0000000000000000000, -7.109998028014204707E-15 ) ) ;
#183 = AXIS2_PLACEMENT_3D ( 'NONE', #141, #103, #182 ) ;
#184 = DIRECTION ( 'NONE',  ( 0.0000000000000000000, 0.0000000000000000000, 1.000000000000000000 ) ) ;
#185 = PLANE ( 'NONE',  #8 ) ;
#186 = DATE_TIME_ROLE ( 'creation_date' ) ;
#187 = CYLINDRICAL_SURFACE ( 'NONE', #138, 3.000000000000017319 ) ;
#188 = ADVANCED_FACE ( 'NONE', ( #91, #68 ), #191, .T. ) ;
#189 = DIRECTION ( 'NONE',  ( 1.000000000000000000, 0.0000000000000000000, -6.982962677686266711E-15 ) ) ;
#190 = AXIS2_PLACEMENT_3D ( 'NONE', #207, #145, #236 ) ;
#191 = CYLINDRICAL_SURFACE ( 'NONE', #229, 2.000000000000015987 ) ;
#192 = DIRECTION ( 'NONE',  ( 7.109998028014204707E-15, -0.0000000000000000000, 1.000000000000000000 ) ) ;
#193 = CC_DESIGN_APPROVAL ( #33, ( #54 ) ) ;
#194 = DIRECTION ( 'NONE',  ( -1.000000000000000000, 0.0000000000000000000, 6.982962677686266711E-15 ) ) ;
#195 = EDGE_CURVE ( 'NONE', #181, #181, #233, .T. ) ;
#196 = VERTEX_POINT ( 'NONE', #17 ) ;
#197 = CIRCLE ( 'NONE', #82, 2.030384493975586402 ) ;
#198 = EDGE_LOOP ( 'NONE', ( #204 ) ) ;
#199 = CALENDAR_DATE ( 2019, 9, 1 ) ;
#200 = EDGE_LOOP ( 'NONE', ( #242 ) ) ;
#201 = AXIS2_PLACEMENT_3D ( 'NONE', #228, #10, #166 ) ;
#202 = PRODUCT_RELATED_PRODUCT_CATEGORY ( 'detail', '', ( #35 ) ) ;
#203 = EDGE_LOOP ( 'NONE', ( #121 ) ) ;
#204 = ORIENTED_EDGE ( 'NONE', *, *, #118, .T. ) ;
#205 = AXIS2_PLACEMENT_3D ( 'NONE', #217, #75, #169 ) ;
#206 = COORDINATED_UNIVERSAL_TIME_OFFSET ( 1, 0, .AHEAD. ) ;
#207 = CARTESIAN_POINT ( 'NONE',  ( -3.270599092886533503E-13, 0.0000000000000000000, -46.00000000000000000 ) ) ;
#208 = ADVANCED_FACE ( 'NONE', ( #256, #132 ), #243, .T. ) ;
#209 = CALENDAR_DATE ( 2019, 9, 1 ) ;
#210 = CALENDAR_DATE ( 2019, 9, 1 ) ;
#211 = CLOSED_SHELL ( 'NONE', ( #86, #231, #115, #208, #45, #64 ) ) ;
#212 = APPLICATION_PROTOCOL_DEFINITION ( 'international standard', 'config_control_design', 1994, #110 ) ;
#213 = CIRCLE ( 'NONE', #205, 2.000000000000016431 ) ;
#214 = VERTEX_POINT ( 'NONE', #234 ) ;
#215 = CARTESIAN_POINT ( 'NONE',  ( 2.030384493975261773, 0.0000000000000000000, -45.65270364466615405 ) ) ;
#216 = EDGE_LOOP ( 'NONE', ( #78 ) ) ;
#217 = CARTESIAN_POINT ( 'NONE',  ( -4.143891548925398996E-13, 0.0000000000000000000, -55.99999999999998579 ) ) ;
#218 = AXIS2_PLACEMENT_3D ( 'NONE', #66, #51, #87 ) ;
#219 = DIRECTION ( 'NONE',  ( 1.000000000000000000, 0.0000000000000000000, 0.0000000000000000000 ) ) ;
#220 = COORDINATED_UNIVERSAL_TIME_OFFSET ( 1, 0, .AHEAD. ) ;
#221 = APPROVAL ( #76, 'UNSPECIFIED' ) ;
#222 = DIRECTION ( 'NONE',  ( -9.317287171897173500E-15, 0.0000000000000000000, -1.000000000000000000 ) ) ;
#223 = AXIS2_PLACEMENT_3D ( 'NONE', #27, #124, #109 ) ;
#224 = ORIENTED_EDGE ( 'NONE', *, *, #152, .F. ) ;
#225 = PERSON_AND_ORGANIZATION_ROLE ( 'creator' ) ;
#226 = APPROVAL_ROLE ( '' ) ;
#227 = CC_DESIGN_PERSON_AND_ORGANIZATION_ASSIGNMENT ( #6, #119, ( #35 ) ) ;
#228 = CARTESIAN_POINT ( 'NONE',  ( -2.854930182845706564E-13, 0.0000000000000000000, -40.15374085333013454 ) ) ;
#229 = AXIS2_PLACEMENT_3D ( 'NONE', #9, #148, #252 ) ;
#230 = DIRECTION ( 'NONE',  ( 7.109998028014204707E-15, -0.0000000000000000000, 1.000000000000000000 ) ) ;
#231 = ADVANCED_FACE ( 'NONE', ( #56, #259 ), #253, .T. ) ;
#232 = PERSON ( 'UNSPECIFIED', 'UNSPECIFIED', 'UNSPECIFIED', ('UNSPECIFIED'), ('UNSPECIFIED'), ('UNSPECIFIED') ) ;
#233 = CIRCLE ( 'NONE', #190, 2.000000000000000888 ) ;
#234 = CARTESIAN_POINT ( 'NONE',  ( -1.000000000000441425, 0.0000000000000000000, -56.99999999999998579 ) ) ;
#235 = VERTEX_POINT ( 'NONE', #34 ) ;
#236 = DIRECTION ( 'NONE',  ( 1.000000000000000000, 0.0000000000000000000, -6.938893903907225222E-15 ) ) ;
#237 = CC_DESIGN_APPROVAL ( #43, ( #127 ) ) ;
#238 = ORIENTED_EDGE ( 'NONE', *, *, #37, .F. ) ;
#239 = APPLICATION_PROTOCOL_DEFINITION ( 'international standard', 'config_control_design', 1994, #123 ) ;
#240 = CC_DESIGN_PERSON_AND_ORGANIZATION_ASSIGNMENT ( #136, #150, ( #108 ) ) ;
#241 = EDGE_CURVE ( 'NONE', #42, #42, #213, .T. ) ;
#242 = ORIENTED_EDGE ( 'NONE', *, *, #144, .F. ) ;
#243 = CONICAL_SURFACE ( 'NONE', #131, 2.030384493975586402, 0.1745329251994260644 ) ;
#244 = ORIENTED_EDGE ( 'NONE', *, *, #152, .T. ) ;
#245 = FACE_OUTER_BOUND ( 'NONE', #101, .T. ) ;
#246 = APPROVAL_STATUS ( 'not_yet_approved' ) ;
#247 = PLANE ( 'NONE',  #168 ) ;
#248 = AXIS2_PLACEMENT_3D ( 'NONE', #53, #26, #189 ) ;
#249 = DIRECTION ( 'NONE',  ( -1.000000000000000000, 0.0000000000000000000, 6.982962677686266711E-15 ) ) ;
#250 = CC_DESIGN_PERSON_AND_ORGANIZATION_ASSIGNMENT ( #165, #48, ( #54 ) ) ;
#251 = PERSON_AND_ORGANIZATION ( #232, #100 ) ;
#252 = DIRECTION ( 'NONE',  ( 1.000000000000000000, 0.0000000000000000000, -7.806255641895568816E-15 ) ) ;
#253 = CONICAL_SURFACE ( 'NONE', #133, 2.399999999999997691, 0.7853981633974476129 ) ;
#254 = DATE_AND_TIME ( #199, #41 ) ;
#255 = FACE_OUTER_BOUND ( 'NONE', #155, .T. ) ;
#256 = FACE_OUTER_BOUND ( 'NONE', #198, .T. ) ;
#257 = ORIENTED_EDGE ( 'NONE', *, *, #241, .T. ) ;
#258 = DIRECTION ( 'NONE',  ( -9.317287171897173500E-15, 0.0000000000000000000, -1.000000000000000000 ) ) ;
#259 = FACE_BOUND ( 'NONE', #260, .T. ) ;
#260 = EDGE_LOOP ( 'NONE', ( #153 ) ) ;
#261 = AXIS2_PLACEMENT_3D ( 'NONE', #22, #222, #105 ) ;
#262 = EDGE_LOOP ( 'NONE', ( #36 ) ) ;
#263 = ADVANCED_FACE ( 'NONE', ( #15, #117 ), #173, .T. ) ;
ENDSEC;
END-ISO-10303-21;
18399