ISO-10303-21;
HEADER;
FILE_DESCRIPTION (( 'STEP AP203' ),
    '1' );
FILE_NAME ('890.040.00.STEP',
    '2019-01-08T22:15:20',
    ( '' ),
    ( '' ),
    'SwSTEP 2.0',
    'SolidWorks 2019',
    '' );
FILE_SCHEMA (( 'CONFIG_CONTROL_DESIGN' ));
ENDSEC;

DATA;
#1 =( GEOMETRIC_REPRESENTATION_CONTEXT ( 3 ) GLOBAL_UNCERTAINTY_ASSIGNED_CONTEXT ( ( #92 ) ) GLOBAL_UNIT_ASSIGNED_CONTEXT ( ( #170, #23, #20 ) ) REPRESENTATION_CONTEXT ( 'NONE', 'WORKASPACE' ) );
#2 = FACE_OUTER_BOUND ( 'NONE', #29, .T. ) ;
#3 = DIRECTION ( 'NONE',  ( -1.000000000000000000, 0.0000000000000000000, 6.982962677686267499E-15 ) ) ;
#4 = AXIS2_PLACEMENT_3D ( 'NONE', #83, #89, #167 ) ;
#5 = LOCAL_TIME ( 23, 15, 20.00000000000000000, #164 ) ;
#6 = ADVANCED_FACE ( 'NONE', ( #139 ), #86, .T. ) ;
#7 = APPLICATION_PROTOCOL_DEFINITION ( 'international standard', 'config_control_design', 1994, #49 ) ;
#8 = APPROVAL_STATUS ( 'not_yet_approved' ) ;
#9 = LOCAL_TIME ( 23, 15, 20.00000000000000000, #79 ) ;
#10 = PERSON_AND_ORGANIZATION ( #138, #111 ) ;
#11 = AXIS2_PLACEMENT_3D ( 'NONE', #144, #70, #132 ) ;
#12 = APPLICATION_CONTEXT ( 'configuration controlled 3d designs of mechanical parts and assemblies' ) ;
#13 = PRODUCT_RELATED_PRODUCT_CATEGORY ( 'detail', '', ( #178 ) ) ;
#14 = APPROVAL_STATUS ( 'not_yet_approved' ) ;
#15 = CARTESIAN_POINT ( 'NONE',  ( 6.633814543801953224E-12, 0.0000000000000000000, 950.0000000000000000 ) ) ;
#16 = DIRECTION ( 'NONE',  ( -1.000000000000000000, 0.0000000000000000000, 6.982962677686267499E-15 ) ) ;
#17 = ADVANCED_FACE ( 'NONE', ( #181 ), #53, .F. ) ;
#18 = DIRECTION ( 'NONE',  ( 6.982962677686266711E-15, -0.0000000000000000000, 1.000000000000000000 ) ) ;
#19 = DIRECTION ( 'NONE',  ( -1.000000000000000000, 0.0000000000000000000, 6.982962677686266711E-15 ) ) ;
#20 =( NAMED_UNIT ( * ) SI_UNIT ( $, .STERADIAN. ) SOLID_ANGLE_UNIT ( ) );
#21 = CALENDAR_DATE ( 2019, 8, 1 ) ;
#22 = PERSON_AND_ORGANIZATION ( #138, #111 ) ;
#23 =( NAMED_UNIT ( * ) PLANE_ANGLE_UNIT ( ) SI_UNIT ( $, .RADIAN. ) );
#24 = CC_DESIGN_DATE_AND_TIME_ASSIGNMENT ( #27, #120, ( #26 ) ) ;
#25 = ORIENTED_EDGE ( 'NONE', *, *, #135, .F. ) ;
#26 = SECURITY_CLASSIFICATION ( '', '', #175 ) ;
#27 = DATE_AND_TIME ( #180, #9 ) ;
#28 = ORIENTED_EDGE ( 'NONE', *, *, #122, .F. ) ;
#29 = EDGE_LOOP ( 'NONE', ( #28 ) ) ;
#30 = CARTESIAN_POINT ( 'NONE',  ( -7.454858774667444890E-31, 0.0000000000000000000, -1.067578206953489946E-16 ) ) ;
#31 = VERTEX_POINT ( 'NONE', #102 ) ;
#32 = CLOSED_SHELL ( 'NONE', ( #41, #160, #162, #157 ) ) ;
#33 = PLANE ( 'NONE',  #176 ) ;
#34 = AXIS2_PLACEMENT_3D ( 'NONE', #147, #94, #104 ) ;
#35 = PERSON_AND_ORGANIZATION ( #138, #111 ) ;
#36 = PERSON_AND_ORGANIZATION_ROLE ( 'design_supplier' ) ;
#37 = AXIS2_PLACEMENT_3D ( 'NONE', #30, #183, #55 ) ;
#38 = APPROVAL_ROLE ( '' ) ;
#39 = MANIFOLD_SOLID_BREP ( 'TYp 17 drehen[2]', #149 ) ;
#40 = PERSON_AND_ORGANIZATION_ROLE ( 'classification_officer' ) ;
#41 = ADVANCED_FACE ( 'NONE', ( #52 ), #151, .F. ) ;
#42 = APPROVAL_DATE_TIME ( #182, #163 ) ;
#43 = CC_DESIGN_APPROVAL ( #163, ( #26 ) ) ;
#44 = FACE_BOUND ( 'NONE', #56, .T. ) ;
#45 = DIRECTION ( 'NONE',  ( -6.982962677686266711E-15, 0.0000000000000000000, -1.000000000000000000 ) ) ;
#46 = CYLINDRICAL_SURFACE ( 'NONE', #11, 2.000000000000000000 ) ;
#47 = FACE_OUTER_BOUND ( 'NONE', #98, .T. ) ;
#48 = MECHANICAL_CONTEXT ( 'NONE', #12, 'mechanical' ) ;
#49 = APPLICATION_CONTEXT ( 'configuration controlled 3d designs of mechanical parts and assemblies' ) ;
#50 = DATE_AND_TIME ( #116, #105 ) ;
#51 = PERSON_AND_ORGANIZATION ( #138, #111 ) ;
#52 = FACE_OUTER_BOUND ( 'NONE', #156, .T. ) ;
#53 = PLANE ( 'NONE',  #152 ) ;
#54 = CC_DESIGN_SECURITY_CLASSIFICATION ( #26, ( #91 ) ) ;
#55 = DIRECTION ( 'NONE',  ( -1.000000000000000000, 0.0000000000000000000, 6.982962677686266711E-15 ) ) ;
#56 = EDGE_LOOP ( 'NONE', ( #67 ) ) ;
#57 = CIRCLE ( 'NONE', #161, 1.599999999999998535 ) ;
#58 = DIRECTION ( 'NONE',  ( -6.982962677686266711E-15, 0.0000000000000000000, -1.000000000000000000 ) ) ;
#59 = VERTEX_POINT ( 'NONE', #115 ) ;
#60 = VERTEX_POINT ( 'NONE', #171 ) ;
#61 = APPROVAL_STATUS ( 'not_yet_approved' ) ;
#62 = APPROVAL_PERSON_ORGANIZATION ( #65, #172, #38 ) ;
#63 = DATE_AND_TIME ( #21, #5 ) ;
#64 = COORDINATED_UNIVERSAL_TIME_OFFSET ( 1, 0, .AHEAD. ) ;
#65 = PERSON_AND_ORGANIZATION ( #138, #111 ) ;
#66 = SHAPE_DEFINITION_REPRESENTATION ( #80, #72 ) ;
#67 = ORIENTED_EDGE ( 'NONE', *, *, #84, .T. ) ;
#68 = CARTESIAN_POINT ( 'NONE',  ( -3.351822085289408021E-13, 0.0000000000000000000, -48.00000000000000000 ) ) ;
#69 = DIRECTION ( 'NONE',  ( -1.000000000000000000, 0.0000000000000000000, 6.993104012531503599E-15 ) ) ;
#70 = DIRECTION ( 'NONE',  ( -6.982962677686266711E-15, 0.0000000000000000000, -1.000000000000000000 ) ) ;
#71 = CARTESIAN_POINT ( 'NONE',  ( 0.0000000000000000000, 0.0000000000000000000, 0.0000000000000000000 ) ) ;
#72 = ADVANCED_BREP_SHAPE_REPRESENTATION ( '890.040.00', ( #101, #39, #34 ), #1 ) ;
#73 = FACE_OUTER_BOUND ( 'NONE', #155, .T. ) ;
#74 = APPROVAL_DATE_TIME ( #50, #172 ) ;
#75 = CONICAL_SURFACE ( 'NONE', #81, 1.599999999999998535, 0.7853981633974531640 ) ;
#76 = PERSON_AND_ORGANIZATION_ROLE ( 'creator' ) ;
#77 = DESIGN_CONTEXT ( 'detailed design', #49, 'design' ) ;
#78 = EDGE_CURVE ( 'NONE', #59, #59, #140, .T. ) ;
#79 = COORDINATED_UNIVERSAL_TIME_OFFSET ( 1, 0, .AHEAD. ) ;
#80 = PRODUCT_DEFINITION_SHAPE ( 'NONE', 'NONE',  #100 ) ;
#81 = AXIS2_PLACEMENT_3D ( 'NONE', #71, #129, #3 ) ;
#82 = APPROVAL_PERSON_ORGANIZATION ( #165, #163, #126 ) ;
#83 = CARTESIAN_POINT ( 'NONE',  ( -3.351822085289409031E-13, 0.0000000000000000000, -48.00000000000001421 ) ) ;
#84 = EDGE_CURVE ( 'NONE', #31, #31, #57, .T. ) ;
#85 = COORDINATED_UNIVERSAL_TIME_OFFSET ( 1, 0, .AHEAD. ) ;
#86 = CONICAL_SURFACE ( 'NONE', #143, 1000.000000000004206, 0.7853981633974504994 ) ;
#87 = ORIENTED_EDGE ( 'NONE', *, *, #84, .F. ) ;
#88 = CC_DESIGN_PERSON_AND_ORGANIZATION_ASSIGNMENT ( #174, #36, ( #91 ) ) ;
#89 = DIRECTION ( 'NONE',  ( 6.982962677686266711E-15, -0.0000000000000000000, 1.000000000000000000 ) ) ;
#90 = CARTESIAN_POINT ( 'NONE',  ( -3.351822085289408021E-13, 0.0000000000000000000, -48.00000000000000000 ) ) ;
#91 = PRODUCT_DEFINITION_FORMATION_WITH_SPECIFIED_SOURCE ( 'ANY', '', #178, .NOT_KNOWN. ) ;
#92 = UNCERTAINTY_MEASURE_WITH_UNIT (LENGTH_MEASURE( 1.000000000000000082E-05 ), #170, 'distance_accuracy_value', 'NONE');
#93 = APPROVAL_ROLE ( '' ) ;
#94 = DIRECTION ( 'NONE',  ( 0.0000000000000000000, 0.0000000000000000000, 1.000000000000000000 ) ) ;
#95 = DIRECTION ( 'NONE',  ( 1.000000000000000000, 0.0000000000000000000, -6.994405055138457017E-15 ) ) ;
#96 = AXIS2_PLACEMENT_3D ( 'NONE', #128, #18, #169 ) ;
#97 = CALENDAR_DATE ( 2019, 8, 1 ) ;
#98 = EDGE_LOOP ( 'NONE', ( #168 ) ) ;
#99 = DIRECTION ( 'NONE',  ( -6.982962677686266711E-15, 0.0000000000000000000, -1.000000000000000000 ) ) ;
#100 = PRODUCT_DEFINITION ( 'UNKNOWN', '', #91, #77 ) ;
#101 = MANIFOLD_SOLID_BREP ( 'TYp 17 drehen[1]', #32 ) ;
#102 = CARTESIAN_POINT ( 'NONE',  ( -1.599999999999998535, 0.0000000000000000000, 1.117274028429801727E-14 ) ) ;
#103 = CC_DESIGN_PERSON_AND_ORGANIZATION_ASSIGNMENT ( #51, #40, ( #26 ) ) ;
#104 = DIRECTION ( 'NONE',  ( 1.000000000000000000, 0.0000000000000000000, 0.0000000000000000000 ) ) ;
#105 = LOCAL_TIME ( 23, 15, 20.00000000000000000, #110 ) ;
#106 = DATE_AND_TIME ( #118, #166 ) ;
#107 = PERSON_AND_ORGANIZATION_ROLE ( 'creator' ) ;
#108 = CIRCLE ( 'NONE', #159, 2.000000000000000000 ) ;
#109 = CC_DESIGN_APPROVAL ( #148, ( #91 ) ) ;
#110 = COORDINATED_UNIVERSAL_TIME_OFFSET ( 1, 0, .AHEAD. ) ;
#111 = ORGANIZATION ( 'UNSPECIFIED', 'UNSPECIFIED', '' ) ;
#112 = EDGE_LOOP ( 'NONE', ( #179 ) ) ;
#113 = CARTESIAN_POINT ( 'NONE',  ( 1.999999999999664713, 0.0000000000000000000, -48.00000000000002842 ) ) ;
#114 = CC_DESIGN_PERSON_AND_ORGANIZATION_ASSIGNMENT ( #22, #133, ( #178 ) ) ;
#115 = CARTESIAN_POINT ( 'NONE',  ( 1.999999999999664713, 0.0000000000000000000, -48.00000000000002842 ) ) ;
#116 = CALENDAR_DATE ( 2019, 8, 1 ) ;
#117 = APPROVAL_DATE_TIME ( #63, #148 ) ;
#118 = CALENDAR_DATE ( 2019, 8, 1 ) ;
#119 = APPROVAL_PERSON_ORGANIZATION ( #35, #148, #93 ) ;
#120 = DATE_TIME_ROLE ( 'classification_date' ) ;
#121 = ORIENTED_EDGE ( 'NONE', *, *, #78, .T. ) ;
#122 = EDGE_CURVE ( 'NONE', #60, #60, #108, .T. ) ;
#123 = ORIENTED_EDGE ( 'NONE', *, *, #135, .T. ) ;
#124 = DIRECTION ( 'NONE',  ( 6.982962677686266711E-15, -0.0000000000000000000, 1.000000000000000000 ) ) ;
#125 = CC_DESIGN_PERSON_AND_ORGANIZATION_ASSIGNMENT ( #10, #76, ( #100 ) ) ;
#126 = APPROVAL_ROLE ( '' ) ;
#127 = DIRECTION ( 'NONE',  ( -6.982962677686266711E-15, 0.0000000000000000000, -1.000000000000000000 ) ) ;
#128 = CARTESIAN_POINT ( 'NONE',  ( -3.351822085289409031E-13, 0.0000000000000000000, -48.00000000000001421 ) ) ;
#129 = DIRECTION ( 'NONE',  ( -6.982962677686266711E-15, 0.0000000000000000000, -1.000000000000000000 ) ) ;
#130 = CC_DESIGN_PERSON_AND_ORGANIZATION_ASSIGNMENT ( #173, #107, ( #91 ) ) ;
#131 = CIRCLE ( 'NONE', #96, 2.000000000000000000 ) ;
#132 = DIRECTION ( 'NONE',  ( -1.000000000000000000, 0.0000000000000000000, 6.938893903907228378E-15 ) ) ;
#133 = PERSON_AND_ORGANIZATION_ROLE ( 'design_owner' ) ;
#134 = CC_DESIGN_APPROVAL ( #172, ( #100 ) ) ;
#135 = EDGE_CURVE ( 'NONE', #142, #142, #131, .T. ) ;
#136 = DATE_TIME_ROLE ( 'creation_date' ) ;
#137 = CC_DESIGN_DATE_AND_TIME_ASSIGNMENT ( #106, #136, ( #100 ) ) ;
#138 = PERSON ( 'UNSPECIFIED', 'UNSPECIFIED', 'UNSPECIFIED', ('UNSPECIFIED'), ('UNSPECIFIED'), ('UNSPECIFIED') ) ;
#139 = FACE_OUTER_BOUND ( 'NONE', #154, .T. ) ;
#140 = CIRCLE ( 'NONE', #4, 2.000000000000000000 ) ;
#141 = CARTESIAN_POINT ( 'NONE',  ( 0.0000000000000000000, 0.0000000000000000000, 0.0000000000000000000 ) ) ;
#142 = VERTEX_POINT ( 'NONE', #113 ) ;
#143 = AXIS2_PLACEMENT_3D ( 'NONE', #15, #124, #95 ) ;
#144 = CARTESIAN_POINT ( 'NONE',  ( -3.491481338843133355E-13, 0.0000000000000000000, -50.00000000000000000 ) ) ;
#145 = CARTESIAN_POINT ( 'NONE',  ( -2.793185071074489724E-15, 0.0000000000000000000, -0.3999999999999975797 ) ) ;
#146 = LOCAL_TIME ( 23, 15, 20.00000000000000000, #85 ) ;
#147 = CARTESIAN_POINT ( 'NONE',  ( 0.0000000000000000000, 0.0000000000000000000, 0.0000000000000000000 ) ) ;
#148 = APPROVAL ( #8, 'UNSPECIFIED' ) ;
#149 = CLOSED_SHELL ( 'NONE', ( #17, #6 ) ) ;
#150 = APPLICATION_PROTOCOL_DEFINITION ( 'international standard', 'config_control_design', 1994, #12 ) ;
#151 = PLANE ( 'NONE',  #37 ) ;
#152 = AXIS2_PLACEMENT_3D ( 'NONE', #68, #127, #177 ) ;
#153 = EDGE_LOOP ( 'NONE', ( #123 ) ) ;
#154 = EDGE_LOOP ( 'NONE', ( #25 ) ) ;
#155 = EDGE_LOOP ( 'NONE', ( #121 ) ) ;
#156 = EDGE_LOOP ( 'NONE', ( #87 ) ) ;
#157 = ADVANCED_FACE ( 'NONE', ( #47 ), #33, .T. ) ;
#158 = FACE_OUTER_BOUND ( 'NONE', #112, .T. ) ;
#159 = AXIS2_PLACEMENT_3D ( 'NONE', #145, #99, #69 ) ;
#160 = ADVANCED_FACE ( 'NONE', ( #2, #44 ), #75, .T. ) ;
#161 = AXIS2_PLACEMENT_3D ( 'NONE', #141, #58, #16 ) ;
#162 = ADVANCED_FACE ( 'NONE', ( #73, #158 ), #46, .T. ) ;
#163 = APPROVAL ( #14, 'UNSPECIFIED' ) ;
#164 = COORDINATED_UNIVERSAL_TIME_OFFSET ( 1, 0, .AHEAD. ) ;
#165 = PERSON_AND_ORGANIZATION ( #138, #111 ) ;
#166 = LOCAL_TIME ( 23, 15, 20.00000000000000000, #64 ) ;
#167 = DIRECTION ( 'NONE',  ( 1.000000000000000000, 0.0000000000000000000, -6.938893903907228378E-15 ) ) ;
#168 = ORIENTED_EDGE ( 'NONE', *, *, #78, .F. ) ;
#169 = DIRECTION ( 'NONE',  ( 1.000000000000000000, 0.0000000000000000000, -6.938893903907228378E-15 ) ) ;
#170 =( LENGTH_UNIT ( ) NAMED_UNIT ( * ) SI_UNIT ( .MILLI., .METRE. ) );
#171 = CARTESIAN_POINT ( 'NONE',  ( -2.000000000000002665, 0.0000000000000000000, -0.3999999999999835909 ) ) ;
#172 = APPROVAL ( #61, 'UNSPECIFIED' ) ;
#173 = PERSON_AND_ORGANIZATION ( #138, #111 ) ;
#174 = PERSON_AND_ORGANIZATION ( #138, #111 ) ;
#175 = SECURITY_CLASSIFICATION_LEVEL ( 'unclassified' ) ;
#176 = AXIS2_PLACEMENT_3D ( 'NONE', #90, #45, #19 ) ;
#177 = DIRECTION ( 'NONE',  ( -1.000000000000000000, 0.0000000000000000000, 6.982962677686266711E-15 ) ) ;
#178 = PRODUCT ( '890.040.00', '890.040.00', '', ( #48 ) ) ;
#179 = ORIENTED_EDGE ( 'NONE', *, *, #122, .T. ) ;
#180 = CALENDAR_DATE ( 2019, 8, 1 ) ;
#181 = FACE_OUTER_BOUND ( 'NONE', #153, .T. ) ;
#182 = DATE_AND_TIME ( #97, #146 ) ;
#183 = DIRECTION ( 'NONE',  ( -6.982962677686266711E-15, 0.0000000000000000000, -1.000000000000000000 ) ) ;
ENDSEC;
END-ISO-10303-21;
12552